All Who Remain Tabs by Beware Of Darkness

 -------------------------------------------------------------------------------
                             All Who remain - Beware Of Darkness
-------------------------------------------------------------------------------
:Tristan Jacobo
Tnj.Jacobo

Tuning:Eadgbe
Amazing Song by an Amazing band.



            Main Progression                           Not too sure about the final chord
e|-------------------------------------------------------------x-------------|
B|-------------------------------------------------------------2-------------|
G|-------------------------------------------------------------3-------------|
D|-4----6----7----9----11----7----4------------repeat----------3-------------|
A|-0----2----4----7----7-----4----0----------------------------x-------------|
E|-------------------------------------------------------------x-------------|

e|---------------------------------------------------------------------------|
B|---------------------------------------------------------------------------|
G|---------------------------------------------------------------------------|
D|-4----6----7----9----11---9--7------7----4-------------------played live---|
A|-0----2----4----7----7----7--7------4----0---------------------------------|
E|---------------------------------------------------------------------------|
            extra riffs
e|---------------------------------------------------------------------------|
B|----5\3--------------------------------------------------------------------|
G|--------2------------------------------------2-----------------------------|
D|-----------4b----------------------3h5p3-----------palm mute---------------|
A|---------------------------------------------------------------------------|
E|---------------------------------------------------------------------------|
           Pre-chorus
e|---------------------------------------------------------------------------|
B|---------------------------------------------------------------------------|
G|---------------------------------------------------------------------------|
D|---------------------------------------------------------------------------|
A|---------------------------------------------------------------------------|
E|---0000-2222-4444-5555-x4-----------------------------palm mute everything-|
       At the last pre chorus play this and it returns to the chorus
e|---------------------------------------------------------------------------|
B|---------------------------------------------------------------------------|
G|---------------------------------------------------------------------------|
D|------4444444444444--------------------------------------------------------|
A|------0000000000000--------------------------------------------------------|
E|---------------------------------------------------------------------------|
      solo         *i don't know the solo exactly but this is about right
e|--------5-5-9b--5/17--17---------------------------------------------------|
B|---\5555-5---------------17b-----------------------------------------------|
G|----------------------------16b--14----------------------------------------|
D|---------------------------------------------------------------------------|
A|---------------------------------------------------------------------------|
E|---------------------------------------------------------------------------|
                  Lyrics
Tell the one above he’s a criminal
For taking and giving life like marble candy
Everything collapses around me
Overwhelms and astounds me
A Terrible Truth

When you leave this life, the world will be a darker place for
All Who Remain
The light you gave the human race will go away…

I see you every time that I close my eyes
I Hum every lullaby that you used to sing
You never know the last time you’ll see someone
So give them all of your love
C
(Visited 1 times, 1 visits today)

Comments are closed.