Anisina Tabs – Pink Floyd

 -------------------------------------------------------------------------------
                             Anisina - Pink Floyd
-------------------------------------------------------------------------------

Tuning:

Note: A slide will be needed, especially for higher notes beyond the neck

0:38 (with a slide)

e|---------------------------------------------------------------------------|
B|--8/13------------------8/13/17--------------------------------------------|
G|---------------------------------------------------------------------------|
D|---------------------------------------------------------------------------|
A|---------------------------------------------------------------------------|
E|---------------------------------------------------------------------------|

0:50 (with a slide)

e|--15-15/17\12-12---17--15--12/13\12\3--------------------------------------|
B|------------------------------------------5/10-----------12/13\12-5/10\8---|
G|---------------------------------------------------------------------------|
D|---------------------------------------------------------------------------|
A|---------------------------------------------------------------------------|
E|---------------------------------------------------------------------------|

e|---------------------------------------------------------------------------|
B|------5\3/5----5/8/10---10/12-12/13-13/15/17/18/20-------------------------|
G|---------------------------------------------------------------------------|
D|---------------------------------------------------------------------------|
A|---------------------------------------------------------------------------|
E|---------------------------------------------------------------------------|

1:53 (with a slide)

e|---------------17--17/19--19/20--20/22--22/24--24/27--27/29--29/31--31/32--32/34--34/36----|
B|--8/18--18/20------------------------------------------------------------------------------|
G|-------------------------------------------------------------------------------------------|
D|-------------------------------------------------------------------------------------------|
A|-------------------------------------------------------------------------------------------|
E|-------------------------------------------------------------------------------------------|

2:20 (without slide from now on)

e|--------------------------------------------------------15-15---------15b-15br-15-15-------|
B|-----13-15-15b--15br-13--17b-17br-17b--17br-13------15b--------13-13-----------------------|
G|--12---------------------------------------------------------------------------------------|
D|-------------------------------------------------------------------------------------------|
A|-------------------------------------------------------------------------------------------|
E|-------------------------------------------------------------------------------------------|

2:34 

e|--15b--15br-15-------------------------------12--12h13p12----------------------------------|
B|----------------13-15-15b--13-15----------13--------------13-15---13-13--------------------|
G|---------------------------------14----14--------------------------------------------------|
D|-------------------------------------------------------------------------------------------|
A|-------------------------------------------------------------------------------------------|
E|-------------------------------------------------------------------------------------------|


************************************

| /   slide up
| \   slide down
| h   hammer-on
| p   pull-off
| ~   vibrato
| +   harmonic
| x   Mute note
| b   Bend
| pb  Pre-bend
| br  Bend release
| pbr Pre-bend release
| brb Bend release bend

************************************
(Visited 1 times, 1 visits today)

Comments are closed.