Back Street Girl Tabs – The Rolling Stones Vsion 1

 BACK STREET GIRL

As recorded by The Rolling Stones
(From the 1967 Album FLOWERS)

Words and Music by Mick Jagger & Keith Richards

 Slowhand


Gtr I (D G C F A D) - 'Keith Richards - Acoustic Guitar (1 step down)'


   Intro
    Q=154
    E/A        D/A        A
   3/4
    Gtr I (Ac. Gtr. / 1 step down: D G C F A D) 
    Q  Q  Q    Q  Q  Q    E E E E E E   Q  Q  Q
||-----4-----|----2-----|-------5-----|----5--5--|
||o-------5--|-------3--|-----2---3-5-|----2--2--|
||-----------|----------|---2---------|----2--2--|
||-----------|----------|-------------|----2--2--|
||o-0--------|-0--------|-0-----------|-0--------|
||-----------|----------|-------------|----------|


  E           D           A
  E E Q  Q    E E Q  Q    E E E E E E   Q  E E Q
|-----0-----|-----------|---------5---|----5-5-5---||
|---0----0--|-----3-----|-----2-----3-|-2--2-2-2--o||
|-----------|---2----2--|-------------|----2-2-2---||
|-----------|-0---------|---2---2-----|----2-2-2---||
|-----------|-----------|-0-----------|-----------o||
|-0---------|-----------|-------------|------------||


   1st - 4th Verses
    $
    $$
    E/A        D/A        A
    Q  Q  Q    Q  Q  Q    E E E E E E   Q  Q  Q
||-----4-----|----2-----|-------5-----|----5--5--|
||o-------5--|-------3--|-----2---3-5-|----2--2--|
||-----------|----------|---2---------|----2--2--|
||-----------|----------|-------------|----2--2--|
||o-0--------|-0--------|-0-----------|-0--------|
||-----------|----------|-------------|----------|


  E           D           A
  E E Q  Q    E E Q  Q    E E E E E E   Q  E E Q
|-----0-----|-----------|---------5---|----5-5-5--|
|---0----0--|-----3-----|-----2-----3-|-2--2-2-2--|
|-----------|---2----2--|-------------|----2-2-2--|
|-----------|-0---------|---2---2-----|----2-2-2--|
|-----------|-----------|-0-----------|-----------|
|-0---------|-----------|-------------|-----------|


  E/A        D/A        A
  Q  Q  Q    Q  Q  Q    E E E E E E   Q  Q  Q
|----4-----|----2-----|-------5-----|----5--5--|
|-------5--|-------3--|-----2---3-5-|----2--2--|
|----------|----------|---2---------|----2--2--|
|----------|----------|-------------|----2--2--|
|-0--------|-0--------|-0-----------|-0--------|
|----------|----------|-------------|----------|


  E           D           A
  E E Q  Q    E E Q  Q    E E E E E E   Q  E E Q
|-----0-----|-----------|---------5---|----5-5-5--||
|---0----0--|-----3-----|-----2-----3-|-2--2-2-2--||
|-----------|---2----2--|-------------|----2-2-2--||
|-----------|-0---------|---2---2-----|----2-2-2--||
|-----------|-----------|-0-----------|-----------||
|-0---------|-----------|-------------|-----------||


 Pre-Chorus
  Bm            F#7/A#        Bm
  E E E E E E   E E E E E E   E E E E E E   E E E E E E
|-------2-----|-------0-----|-------2-----|-------2-----|
|-----3---3---|-----2---2---|---------3---|---------3---|
|---4-------4-|---3-------3-|-----4-----4-|-----4-----4-|
|-------------|-------------|---4---------|---4---------|
|-2-----------|-1-----------|-2-----------|-2-----------|
|-------------|-------------|-------------|-------------|


  C#m           D             A
  E E E E E E   E E E E E E   E E E E E E
|-------4-----|-------2-----|-------------|
|---------5---|-----3---3---|-------2-----|
|-----6-----6-|---2-------2-|-----2---2---|
|---6---------|-0-----------|---2-------2-|
|-4-----------|-------------|-0-----------|
|-------------|-------------|-------------|


  E
  Q  E E E E   Q  E E E E   Q  E E E E   Q  E E E E
|----0-0-0-0-|----0-0-0-0-|----0-0-0-0-|----0-0-0-0-||
|----0-0-0-0-|----0-0-0-0-|----0-0-0-0-|----0-0-0-0-||
|----1-1-1-1-|----1-1-1-1-|----1-1-1-1-|----1-1-1-1-||
|----2-2-2-2-|----2-2-2-2-|----2-2-2-2-|----2-2-2-2-||
|----2-2-2-2-|----2-2-2-2-|----2-2-2-2-|----2-2-2-2-||
|-0--0-0-0-0-|-0--0-0-0-0-|-0--0-0-0-0-|-0--0-0-0-0-||


 Chorus
  E/A        D/A        A
  Q  Q  Q    Q  Q  Q    E E E E E E   Q  Q  Q
|----4-----|----2-----|-------5-----|----5--5--|
|-------5--|------
(Visited 1 times, 1 visits today)

Comments are closed.