Beast And The Harlot Live Tabs by Avenged Sevenfold

 Artist: Avenged Sevenfold
 City of Evil (2005)
Song Title: Beast and the Harlot Live
No.Track: #1

++++++++++++++++++++++++++

* This is Beast and the Harlot live whole song which Synyster Gates play
 at the stage, there are still missing part on this tab, I update it soon
  Hope you like it, No bad comment please and rate it :D

Guitar Tuning: Drop D (D A D G B e) 


Legend

b  - bend
h  - Hammer on
p  - Pull off
/  - Slide down
\  - Slide up
~  - Vibrato
  - Harmmonics
*  - Palm Mute
PM - Palm Mute
[] - Perfect Sound or perfect bend 

++++++++++++++++++++++++++

INTRO A

|-------------------|-----------------|-----------------|-------------|
|-/7~-7-6-7-9-10--5-|-6~~-6-5-6-8~-/6-|-6~~-6-5-6-8~-/6-|-6~-6-5-6-8~-|
|-------------------|-----------------|-----------------|-------------|
|-------------------|-----------------|-----------------|-------------|
|-------------------|-----------------|-----------------|-------------|
|-------------------|-----------------|-----------------|-------------|

|--------------------|-----------------------|-/11b[12]~-(11)-|
|-/9~~~-/9~~~-/11~~~-|-9-11-/13~-/14~~-/14~~-|----------------|
|--------------------|-----------------------|----------------|
|--------------------|-----------------------|----------------|
|--------------------|-----------------------|----------------|
|--------------------|-----------------------|----------------|

INTRO B

|--------------------------|--------------------------|
|--------------------------|--------------------------|
|--------------------------|-----10----12----13----12-| x3
|----(0)~~-----------------|-0000--0000--0000--0000---|
|----(0)~~-----------------|--------------------------|
|----(0)~~-----------------|--------------------------|
                             ****  ****  ****  ****                            
                            
|-----------10-/13-10---13-|--10~--|
|---------10---------13----|-------|
|-12-10-13-----------------|-------|
|--------------------------|-------|
|--------------------------|-------|
|--------------------------|-------|


++++++++++++++++++++++++++

PRE-VERSE

|----------------------------------------------------------|\ 
|----------------------------------------------------------| \ 
|----------------------------------------------------------|  \
|--------------------------------------------------------5-|   \ 
|--0-0-0-0-3--0-0-0-0-5--0-0-0-0-6--0-0-0-0-5--0-0-0-0-3-5-|    \ 
|--0-0-0-0-3--0-0-0-0-5--0-0-0-0-6--0-0-0-0-5--0-0-0-0-3-5-|     \
PM * * * *    * * * *    * * * *    * * * *    * * * *            \
                                                                  (2x)
|------------------------------|                                  /
|------------------------------|                                 /
|------------------------------|                                /
|----------------------------6-|                               /
|--0-0-0-0-3--0-0-0-0-5--0-0-6-|                              /
|--0-0-0-0-3--0-0-0-0-5--0-0-6-| ____________________________/       
PM * * * *    * * * *

++++++++++++++++++++++++++

VERSE

|----------------------------------------------------------|\ 
|----------------------------------------------------------| \ 
|----------------------------------------------------------|  \
|--------------------------------------------------------5-|   \ 
|--0-0-0-0-3--0-0-0-0-5--0-0-0-0-6--0-0-0-0-5--0-0-0-0-3-5-|    \ 
|--0-0-0-0-3--0-0-0-0-5--0-0-0-0-6--0-0-0-0-5--0-0-0-0-3-5-|     \
PM * * * *    * * * *    * * * *    * * * *    * * * *            \
                                                                  (2x)
|------------------------------|                                  /
|------------------------------|                                 /
|------------------------------|                                /
|----------------------------6-|                   
(Visited 1 times, 1 visits today)

Comments are closed.