Beautiful With You chords – Halestorm Vsion 3

 Intro(rythym):   D A D A        

E||-----------------------|----------------------||
B||--9--9--9--10----------|--12-12-12-10----9----||
G||----------------9------|----------------------||
D||-----------------------|----------------------||
A||-----------------------|----------------------||
E||-----------------------|----------------------||

Verse 1:
 D A 
    I stare at the girl in the mirror
 D A 
T-shirt, torn up jeans, no beauty queen
 F#m 
   But the way that you see me
                       E 
You get underneath me
                                   D 
And all my defences just fall away
Fall away

Chorus:         
 F#m A E 
   I am beautiful with you
                    D         
Even in the darkest part of me
 F#m A E 
   I am beautiful with you
                          D          
Make it feel the way it's supposed to be
 G#m F#m 
  You're here with me
         A E 
Just show me this and I'll believe
 F#m A E 
I am beautiful with you

Verse 2:
 D A 
  I stand naked before you now
 D A 
  No walls to hide behind, so here am I
 F#m A 
   You see all of my scars
                E 
Still here you are
                                    D 
I bare my soul and I'm not afraid
Not afraid

Bridge:  D F/G# Bm D 
Palm mute
       D G#m 
I've been the strong one for so long
      Bm 
But I was wrong
 D 
It doesn't make you weak if you're needing someone
 D 
I'm not holding back and I know what I want

bridge:

e------------------------------------------------------||
B--9-------9-------10-------10-------12-------12-------||
G------9-------9--------9--------9--------9--------9---||
D------------------------------------------------------||
A------------------------------------------------------||
E------------------------------------------------------||



 F#m A E A E 
I am beautiful with you
 F#m A E A E 
I am beautiful with you
 D F#m 
You want me for myself
 E 
You get me like no one else
 F#m A E F#m 
I am beautiful with you 
With you

CHORUS
(Visited 1 times, 1 visits today)

Comments are closed.