Black Tooth Tabs by King Gizzard And The Lizard Wizard

                     King Gizzard and the Lizard Wizard - Black Tooth
                         from their 2011 EP Willoughby's Beach

Play it as loud and messy as possible!

Intro:
e|----------------------------------------------------------------|
B|----------------------------------------------------------------|
G|----------------------------------------------------------------| x2
D|----------------------------------------------------------------|
A|----------------------------------------------------------------|
E|-2--2-2-2-2-2-2-2-2-2-2-2-2-2-2-/9--9-9-9-9-9-9-/7--7-7-7-7-7-7-|


Pre-verse:
Guitar 1:
e|-----------------------------------------------------------------|
B|-----------------------------------------------------------------|
G|---------------------------------6-6-6-6-6-6-6-6-4-4-4-4-4-4-4-4-|
D|-4-4-4-4-4-4-4-4-4-4-4-4-4-4-4-4-6-6-6-6-6-6-6-6-4-4-4-4-4-4-4-4-|
A|-4-4-4-4-4-4-4-4-4-4-4-4-4-4-4-4-4-4-4-4-4-4-4-4-2-2-2-2-2-2-2-2-|
E|-2-2-2-2-2-2-2-2-2-2-2-2-2-2-2-2---------------------------------|

e|-0---0---0---0---0---0---0---0---0---0---0---0------------------------------///----|
B|-2---2---2---2---2---2---2---2---2---2---2---2------------------------------///----|
G|-4b6-4b6-4b6-4b6-4b6-4b6-4b6-4b6-4b6-4b6-4b6-4b6----6-6-6-6-6-6-6-6-4-4-4-4--------|
D|----------------------------------------------------6-6-6-6-6-6-6-6-4-4-4-4--------|
A|----------------------------------------------------4-4-4-4-4-4-4-4-2-2-2-2--------|
E|-----------------------------------------------------------------------------------|

Guitar 2:
e|-2----------------------------------------------|
B|-2-----------------------11.---9.-------9.--7.--|
G|-3----------------10-10--10.--10.--8-8--8.--8.--| x2
D|-4----------------11-11------------9-9----------|
A|-4----------------------------------------------|
E|-2----------------------------------------------|


Verse:
"Mum said I'm not okay 'cause I've been talking in my sleep,
And Dad said I'm not okay 'cause I don't ever brush my teeth"
Guitar 1:
e|------------------------------------|
B|------------------------------------|
G|------------------6--------4--------| x2
D|-4----------------6--------4--------|
A|-4----------------4--------2--------|
E|-2----------------------------------|


Chorus:
"Aye-oh-i, aye-oh-i go, aye-oh-i, aye-oh-i go,
Aye-oh-i, aye-oh-i go, aye-oh-i, aye-aye-aye woo"
Guitar 1:
e|---------------------------------------------------------------|
B|---------------------------------------------------------------|
G|-------------------------------6-6-6-6--6-6-6--4-4-4-4--4-4-4--|
D|-4--4-4-4--4-4-4-4-4-4--4-4-4--6-6-6-6--6-6-6--4-4-4-4--4-4-4--|
A|-4--4-4-4--4-4-4-4-4-4--4-4-4--4-4-4-4--4-4-4--2-2-2-2--2-2-2--|
E|-2--2-0-2--2-0-2-2-0-2--2-2-2----------------------------------|

e|---------------------------------------------------------------------------------|
B|---------------------------------------------------------------------------------|
G|-11-11-11-11-11-11-11-11-11-11-11-11-11-11-11-11-6-6-6-6-6-6-6-6-4-4-4-4-4-4-4-4-|
D|-11-11-11-11-11-11-11-11-11-11-11-11-11-11-11-11-6-6-6-6-6-6-6-6-4-4-4-4-4-4-4-4-|
A|--9--9--9--9--9--9--9--9--9--9--9--9--9--9--9--9-4-4-4-4-4-4-4-4-2-2-2-2-2-2-2-2-|
E|---------------------------------------------------------------------------------|


Riff:
Guitar 1:
e|----------------------------------------------------------------|
B|-------0------2------0---------------------9---------------7----|
G|---3------3------3------3-------10----11.----10----8---9.----8--|
D|-4---4------4------4------4-/11----11------------9---9----------|
A|----------------------------------------------------------------|
E|----------------------------------------------------------------|

e|------------------------------------------------------------///----|
B|-------0--------------------------------9---9--9--9--7-7-7--///----|
G|---3------3----------------------10----10--10-10
(Visited 1 times, 1 visits today)

Comments are closed.