Bleeder Tabs – Mutoid Man

 -------------------------------------------------------------------------------
                             BLEEDER - Mutoid Man
-------------------------------------------------------------------------------
: lithiumfaux


Tuning - low to high - G# G# C# F# A# D#
(low G# is an octave below the other)


INTRO             (let all notes ring out)                                  x9
e|---------------------------------------------------0-----0-----------------|
B|-----0-----0---------------0-----0---------------1-----4-----3-------------|
G|---0-----0-----0---------0-----0-----0---------2-----/5-----4--------------|
D|-2-----/5-----4---------2-----0-----------------------------------------2-1|
A|-----------------------------------3---------------------------------------|
E|---------------------------------------------------------------------------|
     (3)   (3)       (8)                                                                 x2  On 2nd ending, play
e|----------------------------------------------------------0-0-0-0-0-0-0-0-0-0-0-0-00-----|      | this instead
B|--0-0-0-0-0-0-0-0-0-0-0-0-0-0-0-0-0-0-0-0-0-0-0-0-0-0-0-0-1-1-1-4-4-4-3-3-3-3-3-3-3-3----|      v of ---2-1|
G|--0-0-0-0-0-0-0-0-0-0-0-0-0-0-0-0-0-0-0-0-0-0-0-0-0-0-0-0-2-2-2-5-5-5-4-4-4-4-4-4-4-4----|
D|--2-2-2-5-5-5-4-4-4-4-4-4-4-4-2-2-2-0-0-0---------------------------------------------2-1|
A|------------------------------------------3-3-3-3-3-3-3-3--------------------------------|    --7-6|
E|-----------------------------------------------------------------------------------------|    --7-6|
                                                                                                          x2
e|-----------------------------------------------------------------------------------------------------------|
B|-----------------------------------------------------------------------------------------------------------|
G|-----------------------------------------------------------------------------------------------------------|
D|-----------------------------------------------------------------------------------------------------------|
A|-7-7-7-10-10-10-9-9-9-9-9-9-9-9-9-7-7-7-5-5-5-3-3-3-3-3-3-3-3-12-12-12-15-15-15-14-14-14-14-14-14-14-14-7-6|
E|-7-7-7-10-10-10-9-9-9-9-9-9-9-9-9-7-7-7-5-5-5-3-3-3-3-3-3-3-3-12-12-12-15-15-15-14-14-14-14-14-14-14-14-7-6|

   wobbly leadish part  - listen to the song for timing, effects, and help!
   e|----------------------------------------------------12---------15---------19----b20-|
   B|-----------------------8--------12-------b13----------------------------------------|
   G|----------------9-------------------------------------------------------------------|
   D|----9bendslowly---------------------------------------------------------------------|
   A|------------------------------------------------------------------------------------|
   E|------------------------------------------------------------------------------------|






PART 2                                                                     pm
e|----------------------------------------------------------------------------------|
B|----------------------------------------------------------------------------------|
G|--5-------5-------4---5-------5-------4---5-------5-------4---5-------5-----------|
D|--5-------5-------4---5-------5-------4---5-------5-------4---5-------5-----------|
A|--3---2---3---2---2-0-3---2---3---2---2-0-3---2---3---2---2-0-3---2---3---2-------|
E|--3---2---3---2---2-0-3---2---3---2---2-0-3---2---3---2---2-0-3---2---3---2-------|







PART 3      (let ring)  
e|--0------------------------------------------------------------------|
B|-----------10------8-----------------------12------15---13-----------|
G|----11---12------11-----11---------------14------17---------16-------|
D|--------------------------9-----------------------------------14-----|
A|---------------------------------------------------------------------|

Comments are closed.