Bottom Tabs by Tool V3

 Bottom by Tool

: Radiohead293
Tuning: Drop D 

0:01
e|--------------------------------------|
B|--------------------------------------|
G|--------------------------------------|
D|----5----0---2-3-0-3p2-0-2-3-0-3p2-0--| x3
A|----5----0---2-3-0-3p2-0-2-3-0-3p2-0--|
D|----5----0---2-3-0-3p2-0-2-3-0-3p2-0--|

e|--------------------------------------|
B|--------------------------------------|
G|--------------------------------------|
D|----5----0---2-3-0-3p2-0-2-3----------|
A|----5----0---2-3-0-3p2-0-2-3----------|
D|----5----0---2-3-0-3p2-0-2-3----------|

e|--------------------------------------|
B|--------------------------------------|
G|--------------------------------------|
D|----3----0----------------------------|
A|----3----0----------------------------|
D|----3----0----------------------------|

0:28
e|--------------------------------------|
B|--------------------------------------|
G|--------------------------------------|
D|--------------------------------------| x4
A|-----------------------------3--------|
D|-0---2-3-xxxxxxxx-0---2-3-xx---3------|
  
e|--------------------------------------|
B|--------------------------------------|
G|--------------------------------------|
D|--------------------------------------| x3
A|-----------------------------3--------|
D|-0---2-3-xxxxxxxx-0---2-3-xx---3------|
   m   m m          m   m m    m m

e|--------------------------------------|
B|--------------------------------------|
G|--------------------------------------|
D|--------------------------------------| 
A|-----------------------------3b-------|
D|-0---2-3-xxxxxxxx-0---2-3-xx----------|
   m   m m          m   m m    

0:55
e|-----------------------------------|
B|-----------------------------------|
G|-----------------------------------|
D|-0---2-3-0-3p2-0-2-3-0-3p2-0-5-----| x3
A|-0---2-3-0-3p2-0-2-3-0-3p2-0-5-----|
D|-0---2-3-0-3p2-0-2-3-0-3p2-0-5-----|

e|-----------------------------------|
B|-----------------------------------|
G|-----------------------------------|
D|-0---2-3-0-3p2-0-2-3b--------------| 
A|-0---2-3-0-3p2-0-2-3b--------------|
D|-0---2-3-0-3p2-0-2-3b--------------|

1:08
e|--------------------------------------|
B|--------------------------------------|
G|--------------------------------------|
D|--------------------------------------| x4
A|-----------------------------3--------|
D|-0---2-3-xxxxxxxx-0---2-3-xx---3------|
   m   m m          m   m m    m m

e|--------------------------------------|
B|--------------------------------------|
G|--------------------------------------|
D|--------------------------------------| x3
A|-------------------------------15-----|
D|-0---2-3-xxxxxxxx-0---14-15-xx----15~-|
   m   m m          m   

e|--------------------------------------|
B|--------------------------------------|
G|--------------------------------------|
D|--------------------------------------| 
A|-------------------------------15b----|
D|-0---2-3-xxxxxxxx-0---14-15-xx--------|
   m   m m          m   

1:35
e|-----------------------------------|
B|-----------------------------------|
G|-----------------------------------|
D|-0---2-3-0-3p2-0-2-3-0-3p2-0-5-----| x3
A|-0---2-3-0-3p2-0-2-3-0-3p2-0-5-----|
D|-0---2-3-0-3p2-0-2-3-0-3p2-0-5-----|

e|-----------------------------------|
B|-----------------------------------|
G|-----------------------------------|
D|-0---2-3-0-3p2-0-2-3---------------| 
A|-0---2-3-0-3p2-0-2-3---------------|
D|-0---2-3-0-3p2-0-2-3---------------|

1:50
e|----------------------------|
B|----------------------------|
G|----------------------------|
D|-3----/10--0--5p6-5----0----| x8
A|-3----/10--0--5p6-5----0----|
D|-3----/10--0--5p6-5----0----|

e|---------------------------------------------------------------|
B|---------------------------------------------------------------|
G|-------------------------------------------------------------
(Visited 1 times, 1 visits today)

Comments are closed.