Brother Acoustic Tabs by Alice In Chains V3

 Song: Brother (Unplugged)
Artist: Alice In Chains
 Unplugged

Tuning: Eb, Ab, Db, Gb, Bb, Eb

Chords Used:
   A7   A7sus4   A5   F   G
eb|-0-|----0---|--x-|-1-|-3-----------------
Bb|-2-|----3---|--x-|-1-|-3-----------------
Gb|-0-|----0---|--x-|-2-|-0-----------------
Db|-2-|----2---|--2-|-3-|-0-----------------
Ab|-0-|----0---|--0-|-3-|-2-----------------
Eb|-x-|----x---|--x-|-1-|-3-----------------
___________________________________________________________________________________________

eb|------0-----0------0-----0-------------------------------------------------|
Bb|--2---2-----2--2---2--2--2--2-----2--2-3-5-3-2-----------------------------|
Gb|--0---0--0-----0---0--0-----0--0--0--0-0-0-0-0-----------------------------|   x4
Db|--2---2--2-----2---2--2-----2--2--2--2-3-5-3-2-----------------------------|
Ab|--0---0--------0---0--------0--0--0----------------------------------------|
Eb|---------------------------------------------------------------------------|

eb|---------------------------------------------------------------------------|
Bb|--------------------5b(5)---------------------------5b(5)--------8b(8)-----|
Gb|-------------------------6b(6)----------------------------6b(6)------------|
Db|-----------------5-----------------------------5---------------------------|
Ab|--------3--5--7-----------------------3--5--7------------------------------|
Eb|--3--5--------------------------3--5---------------------------------------|

eb|---------------------------------------------------------------------------|
Bb|--------------------5b(5)--------------------------3-5-3-2-----------------|
Gb|-------------------------6b(6)---------------------0-0-0-0-----------------|
Db|-----------------5-----------------------------5--3-5-3-2------------------|
Ab|--------3--5--7-----------------------3--5--7------------------------------|
Eb|--3--5--------------------------3--5---------------------------------------|

A7
Frozen in the place I hide
A7
Not afraid to paint my sky with
A7
Some who say I've lost my mind
A7
Brother try and hope to find

F                           A7  A7sus4   A7     A5      A7sus4      A7
You were always so far away
F                E  G    
I know that pain so don't you run away
G
Like you used to do


eb|------0-----0------0-----0-------------------------------------------------|
Bb|--2---2-----2--2---2--2--2--2-----2--2-3-5-3-2-----------------------------|
Gb|--0---0--0-----0---0--0-----0--0--0--0-0-0-0-0-----------------------------|  x2
Db|--2---2--2-----2---2--2-----2--2--2--2-3-5-3-2-----------------------------|
Ab|--0---0--------0---0--------0--0--0----------------------------------------|
Eb|---------------------------------------------------------------------------|

eb|---------------------------------------------------------------------------|
Bb|--------------------5b(5)---------------------------5b(5)--------8b(8)-----|
Gb|-------------------------6b(6)----------------------------6b(6)------------|     x2
Db|-----------------5-----------------------------5---------------------------|
Ab|--------3--5--7-----------------------3--5--7------------------------------|
Eb|--3--5--------------------------3--5---------------------------------------|

A7
Roses in a vase of white
A7
Bloodied by the thorns beside the leaves
A7
That fall because my hand is
A7
Pulling them hard as I can

F                             A7  A7sus4   A7     A5      A7sus4      A7
You were always so far away
F
I know that pain
E   G
So I won't run away like I used to do

eb|------0-----0------0-----0-------------------------------------------------|
Bb|--2---2-----2--2---2--2--2--2-----2--2-3-5-3-2-----------------------------|
Gb|--0---0--0-----0---0--0-----0--0--0--0-0-0-0-0-----------------------------|  
Db|--2---2--2-----2---2--2-----2--2--2--2-3-5-3-2-----------------------------|
Ab|--0---0--------0---0--------0--0--

Comments are closed.