Brown Eyed Girl Tabs by Alfie Kingston

 Brown Eyed Girl - Van Morrison

Alfie Kingston Duo Version. http://www.youtube.com/watch?v=ElVk8zRWDIM
http://www.alfiekingstonduo.com

: Jacob

Tuning: Standard: EADGBE 
Capo at the 7th fret.
Chords used are C, F, G, and Am.
All Chords and notes are relative to the capo.

Intro: 
    C             F             C             G
E|--------0------|1--3--5--3--1|------0------|3------------|
B|--1--3-----3--1|1------------|1--3-----3--1|0--0--1--3---|
G|--0------------|2------------|0------------|0------------|
D|--2------------|3------------|2------------|0------------|
A|--3------------|-------------|3------------|2------------|
E|---------------|-------------|-------------|3------------|
    C             F             C             G               C
E|--------0------|1--3--5--3--1|------0------|3--3--1--0---|--0--|
B|--1--3-----3--1|1------------|1--3-----3--1|0-----------3|--1--|
G|--0------------|2------------|0------------|0------------|--0--|
D|--2------------|3------------|2------------|0------------|--2--|
A|--3------------|-------------|3------------|2------------|--3--|
E|---------------|-------------|-------------|3------------|-----|
  
Verse I: 

C                 F         C
Hey, where did we go, 
                  G*        C
Days when the rains came ?
           F                C
Down in the hollow  
             G*
Playing a new game,
C                 F              
Laughing and a-running, hey, hey,
C            G*
Skipping and a-jumping
C            F
In the misty morning fog with
C        G*
Our, our hearts a-thumping
        F   G              Am*    F
And you,      my brown-eyed girl,
       G            C     G*
You, my  brown-eyed girl.


Verse II:

C        F         C             
Whatever happened
           G*
To Tuesday and so slow
C                 F                   C
Going down to the old mine with a
           G*
Transistor radio.
C               F                     C
Standing in the sunlight laughing
              G*
Hide behind a rainbow's wall,
C            F           C
Slipping and a-sliding
              G*
All along the waterfall
         F   G              Am*       F
With you,      my brown-eyed girl,
       G              C
You, my    brown-eyed girl.

Chorus:

G
Do you remember when we used to sing
C               F          C          G
Sha la la la la la la la la la la dee dah
C               F          C          G
Sha la la la la la la la la la la dee dah
       C*       
La dee dah.

Solo: 

E|-----------|--------------------|--0-----------------|
B|-----------|--------------1--3--|-----3--1-----------|
G|-----------|--------0--2--------|-----------0--0h2p0-|
D|-----------|-----0--------------|--------------------|
A|--0--1--2--|--3-----------------|--------------------|
E|-----------|--------------------|--------------------|

E|--------------------------|-----------------------|
B|--1-----3-----1-----3-----|--0--1--3--1-----------|
G|-----0-----0-----0-----0--|--------------0--0-----|
D|--------------------------|--------------------0--|
A|--------------------------|-----------------------|
E|--------------------------|-----------------------|

E|--------------------|-------3-----3-----------|
B|-----------------1--|--3/5-----5-----5--3--1--|
G|-----0-----0--2-----|-------------------------|
D|--2-----2-----------|-------------------------|
A|--------------------|-------------------------|
E|--------------------|-------------------------|
                                                         C*
E|-----3-----0-----------|-------3-----3--------------|--0--|
B|--1-----1-----1--3--1--|--3/5-----5-----3--1--3--1--|--1--|
G|-----------------------|----------------------------|--0--|
D|-----------------------|----------------------------|--2--|
A|-----------------------|----------------------------|--3--|
E|-----------------------|------------------
(Visited 1 times, 1 visits today)

Comments are closed.