Chloe intro Tabs – Little Brother Vsion 2

 -------------------------------------------------------------------------------
                             CHLOE - Little Brother
-------------------------------------------------------------------------------
: Thomas Harrison
 tomjar8.au

Tuning: E standard
Capo: 2nd fret

e|-------------5--2-2h3p2-0----------|
B|---3p0-3s5----------------0--------|
G|-----------------------------------|
D|-----------5-----------------------|
A|-3---------------------------------|
E|-----------------------------------|

e|---------------5---2-2h3p2-0-------|
B|-----3p0-3s5----------------0------|
G|-----------------------------------|
D|--0h2--------5---------------------|
A|-3---------------------------------|
E|-----------------------------------|

Just my take on the intro, John's version probably isn't exactly like this.

************************************

| /   slide up
| \   slide down
| h   hammer-on
| p   pull-off
| ~   vibrato
| +   harmonic
| x   Mute note
| b   Bend
| pb  Pre-bend
| br  Bend release
| pbr Pre-bend release
| brb Bend release bend

************************************

Comments are closed.