Clouds Of Dawn chords – Dead Moon

 Clouds Of Dawn (Fred Cole)


INTRO:

 E D C G A B  (2x)


 E C G B        
We ain't got the feeling and dreams not at all
For those who come lately are in for a fall
We're told of our outcome in silent rage and anger
We're bent out of focus facing the chasing danger


CHORUS:

 E C E C E C 
  Miles away,    miles away,    we're miles away
           G B 
But the clouds of dawn will soon be gone


+INTRO 


Hold it too close you'll squeeze it to death
For those who push hardest soon run out of breath
I know there's a reason for moments of sadness weeping
It's the pain of a lifetime, it's all that we have worth keeping


CHORUS + INTRO


Lose your illusions and you'll lose your chance
For those who control love have no romance
But I still don't know you for all of the time we're taking
You're still in my eyes babe, the future's ours for waiting


CHORUS + INTRO


(END!)





CHORDS INTRO:

E|-------------------------- 
B|--9---7---5---3---5---7---  
G|--9---7---5---4---6---8--- 
D|--9---7---5---5---7---9---            
A|--7---5---3---5---7---9---  
E|--7---5---3---3---5---7--- 
 
     E D C G A B 


CHORDS (rest):

E|------------------
B|--0---1---0---4---  
G|--1---0---0---4--- 
D|--2---2---0---4---            
A|--2---3---2---2---  
E|--0---3---3---2---
 
     E C G B    




Dead Moon: 
Fred Cole-  Guitar, Vocals 
Toody Cole-  Bass, Vocals  
Andrew Loomis- Drums 


: Deadmoony

"Clouds Of Dawn" on "Stranded In The Mystery Zone"  LP (Tombstone Records, T-40, 1991)
(Visited 1 times, 1 visits today)

Comments are closed.