Comes And Goes In Waves chords – Greg Laswell Vsion 4

 2 Guitars at the beginning played together (Just play the first if you are alone...)
You can play the Riff until the *
and in the end from * as outro

Riff: First Guitar
e|-----0-------0---|-----1-------1---|-----0-------0---|-----------------|
H|---1---1---1---1-|---1---1---1---1-|---1---1---1---1-|-----3-------3---|
G|-2-------2-------|-2-------2-------|-0-------0-------|---4---4---4---4-|
D|-----------------|-----------------|-----------------|-5-------5-------|
A|-----------------|-----------------|-----------------|-----------------|
E|-----------------|-----------------|-----------------|-----------------|

Riff: Second Guitar
e|-----3-------3---|-----3-------3---|-----3-------3---|-----3-------3---|
H|---5-5-5---5-5-5-|---6-6-6---6-6-6-|---5-5-5---5-5-5-|---3-3-3---3-3-3-|
G|-----------------|-----------------|-----------------|-----------------|
D|-----------------|-----------------|-----------------|-----------------|
A|-----------------|-----------------|-----------------|-----------------|
E|-----------------|-----------------|-----------------|-----------------|

No Capo
Intro: 2x Riff

 Am F C               
This one's for the lonely, the one's that seek and find
             G Am     
Only to be let down time after time
 Am F C       
This one's for the torn down, the experts at the fall
                      G Am  
Come on friends, get up now, you're not alone at all


      F C G 
Oh oh oh, oh oh oh
 Am F C G 
Oh, oh oh oh, oh oh oh
*

 F 
And this part was for her
 Dm7 
And this part was for her
 F 
This part was for her
 Dm7 C 
Does she remember?


    Em F 
It comes and goes in waves, I


 Am F C          
This one's for the faithless, the ones that are surprised
                         G Am     
They're only where they are now regardless of their fight
                   F C       
This one's for believing if only for it's sake
                     G Am  
Come on friends get up now love is to be made


      F C G 
Oh oh oh, oh oh oh
 Am F C G 
Oh, oh oh oh, oh oh oh


 F 
And this part was for her
 Dm7 
And this part was for her
 F 
This part was for her
 Dm7 C 
Does she remember?


    Em F C 
It comes and goes in waves, I
    Em F C 
Am only led to wonder why
    Em F C 
It comes in goes in waves, I
    Em F 
Am only led to wonder why
 F          2x  Am F C G 
Why I, why I try


 Am F 
This is for the ones who stand
 C G 
For the ones who try again
 Am F 
For the ones who need a hand
 C G C 
For the ones who think they can


    Em F C 
It comes and goes in waves, I
    Em F C 
Am only led to wonder why
    Em F C 
It comes and goes in waves, I
    Em F F 
Am only led to wonder why
       Am F C G 
Why I try

*
 Am F C G 
Oh, oh oh oh, oh oh oh
 Am F C G 
Oh, oh oh oh, oh oh oh
 Am <s

Comments are closed.