Couches intro Tabs – Park Jefferson

 -------------------------------------------------------------------------------
                             Couches - Park Jefferson
-------------------------------------------------------------------------------
: embarq
Web: vk.com/embarq 

Tuning: Tune-down 1 step (DAFCGD)

Guitar 1:
d|---------------------------------|----------------------------------|
A|-----4-------4-------4-------4---|-----4-------4-------4-------4----|
F|---4---4---4---4---4---4---3---3-|---4---4---4---4---4---4---3---3--|
C|-2-------2-------6-------4-------|-2-------2-------6-------4--------|
G|---------------------------------|----------------------------------|
D|---------------------------------|----------------------------------|

Guitar 2:
d|---------------------------------|----------------------------------|
A|---------------------------------|----------------------------------|
F|---------------------------------|----------------------------------|
C|-----1-------1-------1-------1---|-----1-------1-------1-------1----|
G|---2---2---2---2---2---2---2---2-|---2---2---2---2---2---2---2---2--|
D|-0-------0-------4-------2-------|-0-------0-------4-------2--------|

It's all:) Repeat until the end of the song
(Visited 1 times, 1 visits today)

Comments are closed.