Curiosity Tabs by Camel

                                           Artist - Camel
                                         ****************
                                         Song - Curiosity
                                        ******************
                                          Album - Camel
                                         ***************
                                       Tabbed By - Ayreon77
                                      **********************


Bass Intro
***********
-------------------------------------------

Clean Guitar
00:08                                    
[-----------------|----------|----------]
[-15----15--------|----------|----------] 
[-----------15-14-|-15-14-12-|-14-15-12-]  
[-----------------|----------|----------]  
[-----------------|----------|----------] 
[-----------------|----------|----------]X2


00:41
[-----------------------|---------------------------]
[-----------------------|---------------------------]
[---------s-------------|--------s--s--s--------h---]
[-----7-8/10-8-7----8---|-----7-8/10/12/10-8-8-8-10-]
[-10-------------10---8-|-10------------------------]
[-----------------------|---------------------------]


[----------------------------|---------------------------]
[----------------------------|---------------------------]
[--------s----h--p-s---------|--------s--s--s--------h---]
[-----7-8/10-8-10-8/7----8---|-----7-8/10/12/10-8-8-8-10-]
[-10------------------10---8-|-10------------------------]
[----------------------------|---------------------------]


-------------------------------------------
VERSE 1                    [-----------------|-------------]
********                   [-----------------|-------------]
Sail, sail away,           [------7-10-7-----|------7-8----]
There you go.              [----8--------8-7-|-8-10-----10-]
Why not let me come along, [-10--------------|-------------]
I won't tell no one.       [-----------------|-------------]X2


-------------------------------------------
Small Solo
***********
01:10
[-----------------------|-------------h--p------]
[-------------h--p------|-------15-13--15-13----]
[-12----15-14--15-14-12-|-15-12--------------15-]
[----12-----------------|-----------------------]
[-----------------------|-----------------------]
[-----------------------|-----------------------]


-------------------------------------------
VERSE 2                       [-----------------|-------------]
********                      [-----------------|-------------]
Now our bodies have entwined, [------7-10-7-----|------7-8----]
Touch me with your mind.      [----8--------8-7-|-8-10-----10-]
Your dreams are a mystery,    [-10--------------|-------------]
Please share them with me.    [-----------------|-------------]X2



-------------------------------------------
CHORUS
*******
Curiosity is killing me,
I just got to know.
Curiosity is killing me,
I just got to know 

Play this with the CHORUS
[-----------------------|-------------|-----------------------|-----------]
[-----------------------|--------h----|-----------------------|-----------]
[-----------------------|-----3-3-5---|-----------------------|-----3-----]
[-----------------------|-3-5-------5-|-----------------------|-3-5---3-5-]
[-10-10-8-8-7--8-10-----|-------------|-10-10-8-8-7--8-10-----|-----------]
[-------------------6-8-|-------------|-------------------6-8-|-----------]



-------------------------------------------
BRIDGE
*******
Where, tell me where,
Where are you sailing.


-------------------------------------------
02:01 
GUITAR SOLO
************

[-b--b---b---h-p--------|--------3--p-------------|-----3---b-b-]
[-8--8---8--6-8-6-----6-|---b-b----6-3--brp---b---|-b-3---3-6-6-]
[-----------------7-7---|-5-------------5--3--5-3-|-5-----------]
[-----------------------|-------------------------|-------------]
[-----------------------|----------------
(Visited 1 times, 1 visits today)

Comments are closed.