De Camino A La Vereda Tabs – Buena Vista Social Club

 Props to user: gobels
for having proper chords down
I just added a capo, the main riff on guitar and the trumpet licks to make it complete

-------------------------------------------------------------------------------
              DE CAMINO A LA VEREDA - BUENA VISTA SOCIAL CLUB
-------------------------------------------------------------------------------
: ignaciomendez
 ignacio.mendeznunez

Tuning: Standard
Capo 3rd Fret

Main Riff

   (C)          (F)                (G)         (C)
e|-----------------------------------------1----0----3-----------------------|
B|--------1-----------1---------------0-3----------------1-------------------|
G|-----0--------2--2---------------0-----------------------------------------|
D|--2-------2---3-----------2-3-4--------------------------------------------|
A|--3------------------------------------------------------------------------|
E|---------------------------------3-----------------------------------------|

Variation
   (C)          (F)                (G)         (C)
e|---------------------------------------------------3-3-5-3----(or just 8)--|
B|--------1-----------1---------------0-3----0--1----------------------------|
G|-----0----3---2--2---------------0-----------------------------------------|
D|--2-----------3-----------2-3-4--------------------------------------------|
A|--3------------------------------------------------------------------------|
E|---------------------------------3-----------------------------------------|


Chords with Lyrics

Intro: C F G C x2

Chorus 

C          F              G           C
!Óigame compay! No deje el camino por coger la vereda.   (Sí, Señor.)
C          F              G           C
!Óigame compay! No deje el camino por coger la vereda.

Verse 1:
C       F
Usted por enamorado
G               C
Tan viejo y con poco brillo
C       F
Usted por enamorado
G               C
Tan viejo y con poco brillo
C       F
El pollo que tiene al lado
G               C
Le ha hecho perder el trilloooooo


Chorus 


Verse 2:
C                F            G
Ay, pero yo como soy tan sencillo
             C
Pongo en claro esta trovada
C                F            G
Ay, pero yo como soy tan sencillo
             C
Pongo en claro esta trovada
C            F            G
Compay, yo no dejo el trillo
     C
 Para meterme en cañadaaaa


Chorus


Verse 3:
Ay, pero estabamo´ comentando
Por qué ha abandonado a Andrea
Ay, pero estabamo´ comentando
Por qué ha abandonado a Andrea
Compadre uste´ ´ta cambiando
De camino por vered

Chorus

C                             F            
Pero mire compadrito, uste´ ha ´dejao´ a la
               G       C
pobre Geraldina para meterse Dorotea.


Chorus

Trumpet Riffs at @2:03 (fast lick below)
e|---------------------------------------------------------------------------|
B|---1-1-1---3-1-0-0--3--1h3p1p0-0----1--------------------------------------|
G|-0--------------------------------2---0------------------------------------|
D|-----------------------------------------2---------------------------------|
A|---------------------------------------------------------------------------|
E|---------------------------------------------------------------------------|

Chorus 

Trumpet Riffs at @2:12 (fast lick below)
e|--------0----------3--0-1------------------------0-------------------------|
B|---1-3-------3-1----------------3--1--0-1p0----0---3-3-1----0--------------|
G|-0--------------------------2--------------2-------------2----0-0-0--------|
D|---------------------------------------------------------------------------|
A|---------------------------------------------------------------------------|
E|---------------------------------------------------------------------------|

Bridge

C
No hables de tu marido mujer.
                     G
Mujer de malos sentimientos,
G
Todo se te ha vuelto un cuento
                               C
Porque no ha llegado la hora fatal.


Chorus

Bridge

Chorus




*
(Visited 1 times, 1 visits today)

Comments are closed.