Dear S​​a​​m Im Dead Too You Tabs – Weerd Science

 -------------------------------------------------------------------------------
                        Dear S.A.M. I'm Dead Too You - Weerd Science
-------------------------------------------------------------------------------
:fmongold       
Email:fmongold

. :)

I tabbed it the best I could from this video:


If I did something wrong please feel free to make corrections.

Tuning:Standard (EADgbe)

Main Riff
e|----------------------|
B|----------------------|
G|----------------------|
D|-------9-10---10-9h---|
A|-7-7------------------|
E|-----0----------------|

e|--------------------------------|
B|--------------------------------|
G|--------------------------------|
D|-------12-10--10/9-10h9---------|
A|-7-7--------------------10-9h/7-|
E|-----0--------------------------|

| /  slide up
| \  slide down
| h  hammer-on
| p  pull-off
| ~  vibrato
| +  harmonic
| x  Mute note

Comments are closed.