Different Worlds Ill Leave The Ocean Behind Tabs – Jes Hudak

 -------------------------------------------------------------------------------
                           Different Worlds - Jes Hudak
-------------------------------------------------------------------------------
:chelzeymay

Tuning: standard
Capo on 2

*=pause

Intro:

e|-0---0---1---3--------|
B|-1---1---1---0--------|
G|----------------------|    x2
D|----------------------|
A|-3---3---0---2--------|
E|----------------------|

Verse

e|-0---0---1---3---0---0---1---3---1---1---0---3----|
B|-1---1---1---0---1---1---1---0---1---1---1---0----|
G|--------------------------------------------------|   
D|--------------------------------------------------|
A|-3---3---0---2---3---3---0-------0---0---0--------|
E|-----------------------------3---------------3----|

e|-0---0---1---3---0---0---1---3---1---1---0---3----|
B|-1---1---1---0---1---1---1---0---1---1---1---0----|
G|--------------------------------------------------|   
D|--------------------------------------------------|
A|-3---3---0---2---3---3---0---2---0---0---0---=----|
E|---------------------------------------------3----|


e|-0---0---1---3--------|
B|-1---1---1---0--------|
G|----------------------|    x2
D|----------------------|
A|-3---3---0---2--------|
E|----------------------|

Chorus

e|-0---0---1---3---0---0---1---3---1---1---1---1---3---3---3---*---|
B|-1---1---1---0---1---1---1---0---1---1---1---1---0---0---0---*---|
G|-------------------------------------------------------------*---|   
D|-------------------------------------------------------------*---|
A|-3---3---0-------3---3---0-------0---0---0---0---------------*---|
E|-------------3----------------3------------------3---3---3---*---|


and it's pretty much the same throughout the rest :)
Enjoy!!!

Comments are closed.