Dream Tabs by Before Their Eyes

 : Joshua Garcia (joshuag523@aol.com)

Tabs for the song: Dream by Before Their Eyes
Please rate and let me know if you have any corrections. Thank you.


Tuning: Drop C (C G C F A D)


Intro
Guitar 1/2:
D||-----------------------------------|------------------------------|
A||-----------------------------------|------------------------------|
F||-----------------------------------|------------------------------|
C||--0--7\----3~--3~-----10--10\-5/7--|--0--7\----3~--3~-----3--1-1--|
G||--0--5\--3-3~--3~---0-7---8-\-3/5--|--0--5\--3-3~--3~---0-3--1-1--|
C||--0------3-3~--3~---0--------------|--0------3-3~--3~---0-3--1-1--|
            .          .                        .          .


D||-----------------------------------------|
A||-----------------------------------------|
F||-----------------------------------------|
C||--0--7\----3~--3~-----10-10-10-10-10-10--|
G||--0--5\--3-3~--3~---0-7--7--7--7--7--7---|
C||--0------3-3~--3~---0--------------------|
            .          .


Guitar 1:
D||---------------------------------------|
A||---------------------------------------|
F||------------------10-10-10-10-5-5-5-5--|
C||--8-8-8-8-8-8-8\7-10-10-10-10-5-5-5-5--|
G||--8-8-8-8-8-8-8\7-8--8--8--8--3-3-3-3--|
C||--8-8-8-8-8-8-8\7----------------------|


Guitar 2:
D||-----------------------------------|
A||-----------------------------------|
F||-----------------------------------|
C||--8-8-8-8-8-8-8\7-7-7-7-7-5-5-5-5--|
G||--8-8-8-8-8-8-8\7-8-8-8-8-3-3-3-3--|
C||--8-8-8-8-8-8-8\7------------------|



Verse
Guitar 1/2:
D||--------------------------------------------------------------------------------|
A||--------------------------------------------------------------------------------|
F||--------------------------------------------------------------------------------|
C||--------------------------------------------------------------------------------|
G||--------------------------------------------------------------------------------|
C||--0-0-----0-0---0-0---0-0-0-8-8-8----8---8----8-8-8-8\3-3-3----3-3---3-3---3-3--|


D||---------------------------------------|
A||---------------------------------------|
F||---------------------------------------|
C||---------------------------------------| x2
G||--------------5------------------------|
C||--8-0-0-3-0-0---0-0-3-0-0-10-10-10-10--|



Chorus
Guitar 1:
D||-----------------------------------|-----------------------------------|
A||----5~---6~---5~--------3~---------|-----------------------------------|
F||--7~-------------0~5~--------------|--5-5-5----------------------------|
C||-----------------------------------|--------3-3-3-2-2-2-0-0-0-2-2-3-3--|
G||-----------------------------------|-----------------------------------|
C||-----------------------------------|-----------------------------------|


D||-----------------------------------|--8-8-8----------------------------|
A||----5~---6~---5~--------3~---------|--------6-6-6-5-5-5\3-3-3/5-5-6-6--|
F||--7~-------------0~5~--------------|-----------------------------------|
C||-----------------------------------|-----------------------------------|
G||-----------------------------------|-----------------------------------|
C||-----------------------------------|-----------------------------------|


D||-----------------------------------|-----------------------------------|
A||----5~---6~---5~--------3~---------|-----------------------------------|
F||--7~-------------0~5~--------------|--5-5-5----------------------------|
C||-----------------------------------|--------3-3-3-2-2-2-0-0-0-2-2-3-3--|
G||-----------------------------------|-----------------------------------|
C||-----------------------------------|-----------------------------------|


D||-----------------------------------|--8-8-8----------------------------|
A||----5~---6~---5~--------3~---------|--------6-6-6-5-5-5-6-6-6/8~----\--|
F||--7~-------------0
(Visited 1 times, 1 visits today)

Comments are closed.