Dreaming Or Sinking Tabs – Hotel Books

 : jcameronp
tuning: standard

0:00 - 0:45

e|---------------------------------------------------------------------------|
B|----------7------------------7---------------------------------------------|
G|-4-----------4----7-9----------4---7---------------------------------------| x2
D|---4-2-0---------------5-4-2-----------------------------------------------|
A|---------------------------------------------------------------------------|
E|---------------------------------------------------------------------------|

0:45 - 1:30

e|---------------------------------------------------------------------------|
B|---5----7-8-10---7----5-7-10-7-10----5-8-10-7-8----------------------------|
G|-4------------------4-------------4-------------4-4-2-0--------------------|
D|--------------------------------------------------------4------------------|
A|---------------------------------------------------------------------------|
E|---------------------------------------------------------------------------|

1:32 - 1:58

e|---------------------------------------------------------------------------|
B|---------------------------------------------------------------------------|
G|---------------------------------------------------------------------------|
D|---------------------------------------------------------------------------|
A|-0-3-5/7-3-555-3-5-5/7-7-555-2-0-2-5-5/7-555-2-2-2-0---2-5-2-5/7-7-2-2-5-7-|
E|-----------------------------------------------------3---------------------|

1:59 - 2:54

e|---------------------------------------------------------------------------|
B|---------------------------------------------------------------------------|
G|---------------------------------------------------------------------------|
D|-0-------------------------------------------------------------------------|
A|---2-----5-9-12-7-7-9-5-9-12-14---7-10-9-9-12-7-7-10-9-10-12-14-9-7-5------|
E|-----3-3-------------------------------------------------------------------|

2:54 - end

e|---------------------------------------------------------------------------|
B|-----7------------------7--------------------------------------------------|
G|---------------------------------------------------------------------------|
D|----------14---------------------------------------------------------------|
A|--5----14----10-9-7-5-5---14~----------------------------------------------|
E|---------------------------------------------------------------------------|
(Visited 1 times, 1 visits today)

Comments are closed.