Drug Lord Tabs by William Bonney

 William Bonney – Drug Lord
DADGAD Tuning, no capo

I'd guess this tab is about 90% correct. I listened to the song a lot, over and over 
till I got the parts down. Some parts were kind of hard to hear in the mix.

Intro
D|---------------------------------------------------------------------------|
A|---------------------------------------------------------------------------|
G|-------2--2--2----------2--2--2--------------------------------------------|
D|----------------0----------------0-------2--2--2--0-------2--3--5--3\2p0---|
A|--0h1--------------0h1-----------------------------------------------------|
D|------------------------------------0h3--------------0h3-------------------|

D|---------------------------------------------------------------------------|
A|---------------------------------------------------------------------------|
G|-------2--2--2----------2--2--2-/7/5---------------------------------------|
D|----------------0--------------------------2--2--2--0-------2--3--5--3\2p0-|
A|--0h1--------------0h1-----------------------------------------------------|
D|--------------------------------------0h3--------------0h3-----------------|

D|---------------------------------------------------------------------------|
A|---------------------------------------------------------------------------|
G|-------2--2--2----------2--2--2--------------------------------------------|
D|----------------0----------------0-------2--2--2--0-------2--3--5--3\2p0---|
A|--0h1--------------0h1-----------------------------------------------------|
D|------------------------------------0h3--------------0h3-------------------|

D|---------------------------------------------------------------------------|
A|---------------------------------------------------------------------------|
G|-------2--2--2----------2--2--2-/7/5---------------------------------------|
D|----------------0--------------------------2--2--2--0-------2--3--5--3\2p0-|
A|--0h1--------------0h1-----------------------------------------------------|
D|--------------------------------------0h3--------------0h3-----------------|

Verse 1 (I hate every.. one that I know..)

Guitar 1
D|------------------------------------------------------|
A|------------------------------------------------------|
G|------------9------------10-----------/5-----------/7-|
D|-----7--10--------7--10---------2--7--------2--7------|
A|--8------------8-------------3-----------3------------|
D|------------------------------------------------------|

Guitar 2*
E|-----------------------------------------------------|
B|-----------------------------------------------------|
G|--7-7-7-7----7-7-7-7----2-2-2-2----2-2-2-2-----------|
D|--0-0-0-0----0-0-0-0----0-0-0-0----0-0-0-0-----------|
A|--0-0-0-0----0-0-0-0----0-0-0-0----0-0-0-0-----------|
E|--8-8-8=8=---8-8-8-8----3-3-3-3----3-3-3-3-----------|

*I think the other guitar player is actually doing something different at this part, but 
it was very hard for me to pick out what it was.


Fill before Verse 2
D|--12------------------10----------------------|
A|--12--x16-------------12--x16-----------------|
G|----------------------------------------------|
D|----------------------------------------------|
A|----------------------------------------------|
D|----------------------------------------------|

Verse 2 (Everyone will let me down...)
Guitar 1
D|--12------10----------------------------------|
A|--12--x6--12--x6--12------12--x6--------------|
G|------------------10--x6--12------------------|
D|----------------------------------------------|
A|----------------------------------------------|
D|----------------------------------------------|

Guitar 2 (listen to timing and rhythm)
D|----------------|
A|----------------|
G|--10--9---2--2--|
D|--0---0---0--0--|
A|--0---0---0--0--|
D|--12--10--3--5--|


Bridge (fast twinkly part.. this part probably isn't 100% corr
(Visited 1 times, 1 visits today)

Comments are closed.