Ecailles De Lune Part Ii Tabs by Alcest

 Guitar 1(clean):
ring out~~~~~~~~~~~~~~~~~~~~~~~~~~~~~~~~~~~~~~~~~~~~~~~~~~~~~~~~~~~~~~

E----------------------------------0----------0--------------------------------|
B------------------------2-------2----------2----------------------------------|
G-------------2---2--4---------4----------4------------------------------------|
D-4-4--4---4----4--------------------------------------------------------------|
A-4-----4------------------4------------4--------------------------------------|
E------------------------------------------------------------------------------|

E----------------------------------0----------0--2-----------------------------|
B------------------------2-------2----------2----------------------------------|
G-------------2---2--4---------4----------4------------------------------------|
D-4-4--4---4----4--------------------------------------------------------------|
A-4-----4------------------4------------4--------------------------------------|
E------------------------------------------------------------------------------|

E----------------------------------0----------0---------------------------------|
B------------------------2-------2----------2-----------------------------------|
G-------------2---2--4---------4----------4-------------------------------------|
D-4-4--4---4----4-----------------------2---------------------------------------|
A-4-----4------------------4----------------------------------------------------|
E-------------------------------------------------------------------------------|


E-----------------0---------------------------------------|-----|
B-----------------0---------------------------------------|-----|
G--------------2-----2----------------------------4-------|-----|
D-2---2--2---2---------2--2--2/4-4-4---4-4-4----4---4---4-|--4--|
A-2--------2-----------------0-0-----0----------------0---|--0--|
E-0--------------------------0-0--------------------------|--0--|




Guitar 2(dist):
E----------------------------------------------------------------------------------------|
B----------------------------------------------------------------------------------------|
G----------------------------------------------------------------------------------------|
D-7-----7-7-7---3-------5----------------------------------------------------------------|
A-5-----7-7-7---1-------3----------------------------------------------------------------|
E-5-----5-5-5---1-------3----------------------------------------------------------------|

Guitar 1(dist):
E----------------------|----------------------|-------------------------|
B--------------------1-|----------------------|-------------------------|
G-7-7--5--7------3-3-3-|-9--9----12----12--10-|-55555555555555333333/1--|
D-7-7--7--7--7---3-3-3-|-10-10------10--------|-------------------------|
A-5-5--------7---1-1---|-10-10----------------|-------------------------|
E-5--------------1-----|-8--------------------|-------------------------|


Guitar 2(dist):
E---------------------------------------------------------|
B---------------------------------------------------------|
G---------------------------------------------------------|
D--8----3-2----5---3-----12----------8----3--2--7---------|
A--8----3-3----5---5-----12----------8----3--3--5--5-7-8--|
E--6----1-1----3---3-----10----------6----1--1--5--5-5-5--|

Guitar 1(dist):
E----------------------------------------------------------------------------------------------0----|
B----1----------1-----------6-----------5------------8------------8----------6----------3---3----3--|
G--3---3------3---3-------5---5-------5---5-------7----7--------7---7------7---7----------2--------2|
D--------3----------3---3-------3---3-------3---5---------5---5-------5---5------0------------------|
A-1----------1--------------------------------------------------------------------------------------|
E----------------------------------------
(Visited 1 times, 1 visits today)

Comments are closed.