Even My Dad Does Sometimes Solo solo Tabs – Ed Sheeran

 Hey all, I saw a lot of people requesting all over the internet that someone tab this, so here you guys
go. If anyone is interested I tabbed it off the following video: https://www.youtube.com/watch?v=nko4dShBneI
and also a little by ear from the song. Sorry if there are any mistakes, this is my first ever tab and I am
only 14 years old, so just comment any mistakes :)

(/) Slide Up  (\) Slide Down  (h) Hammer On  (p) Pull Off  (b) Bend (r) Release (v) Vibrato



E|---------------------------------------------
B|--17b19--17--15--17b19--17--15--15-----------
G|------------------------------------16--14v--
D|---------------------------------------------
A|---------------------------------------------
E|---------------------------------------------



E|-----------------------------------------------
B|--17b19--17--15--17b19--17--15--15--17--17b19--
G|-----------------------------------------------
D|-----------------------------------------------
A|-----------------------------------------------
E|-----------------------------------------------



E|---------------------------------------------
B|--17b19--17--15--17b19--17--15--15-----------
G|------------------------------------16--14v--
D|---------------------------------------------
A|---------------------------------------------
E|---------------------------------------------



E|------------------------------------
B|--17b19--17--15--17b20--17b19--15v--
G|------------------------------------
D|------------------------------------
A|------------------------------------
E|------------------------------------



E|----------------------------------------------------------
B|--17b19--17--15--17b19--17--15--15------------15--17--15--
G|------------------------------------16\14/16--------------
D|----------------------------------------------------------
A|----------------------------------------------------------
E|----------------------------------------------------------



E|--17-----------------15v------------
B|------17b19--17--15------17b19--15--
G|------------------------------------
D|------------------------------------
A|------------------------------------
E|------------------------------------



E|------------------------------------------------------------------------------------------------
B|--17b19--17--15--17--15------15-----------------------------------------------------------------
G|-------------------------16------16--14------14--------------------------------------------14v--
D|-----------------------------------------16------15--14\12------12--------------12--14/16-------
A|------------------------------------------------------------14------14--12--14------------------
E|------------------------------------------------------------------------------------------------



E|---------------------15v-------------
B|------17b19--17--15-------17b19--15v-
G|--14---------------------------------
D|-------------------------------------
A|-------------------------------------
E|-------------------------------------
(Visited 1 times, 1 visits today)

Comments are closed.