Everything Tabs by Before Their Eyes

 : Joshua Garcia (joshuag523@aol.com)

Tabs for the song: Everything by Before Their Eyes
Please rate and let me know if you have any corrections. Thank you.


Tuning: Drop C (C G C F A D)


Intro
Guitar 1:
D||---------------0~-------------------0~------------------0~-----------------7~--|
A||---------------3~-------------------5~------------------7~-----------------7~--|
F||-------------------------------------------------------------------------------|
C||----------2~-------------------4~------------------5~-----------------5~-------| x3
G||--/3~---3--------------/5~---5-------------/7~---7-------------7~---7----------|
C||-------------------------------------------------------------------------------|


Guitar 2:
D||--'7~----------------|--7~----10~-------10~--|
A||---------'7~----'7~--|--7~--------8-7-8~-----|
F||----------------'5~--|-----------------------|
C||---------------------|-----------------------| x3
G||---------------------|-----------------------|
C||---------------------|-----------------------|



Verse
Guitar 1:
D||---------------0~-------------------0~------------------0~-----------------7~--|
A||---------------3~-------------------5~------------------7~-----------------7~--|
F||-------------------------------------------------------------------------------|
C||----------2~-------------------4~------------------5~-----------------5~-------|
G||--/3~---3--------------/5~---5-------------/7~---7-------------7~---7----------|
C||-------------------------------------------------------------------------------|


Guitar 2:
D||--7~----10~-------10~--|
A||--7~--------8-7-8~-----|
F||-----------------------|
C||-----------------------|
G||-----------------------|
C||-----------------------|


Guitar 2 (Dub):
D||--------------------------------------------------------------------|
A||--------------------------------------------------------------------|
F||--0000000000000000000000000000000000000000000000000000000000000000--|
C||--5555555555555555555555555555555555555555555555555555555555555555--|
G||--7777777777777777777777777777777777777777777777777777777777777777--|
C||--------------------------------------------------------------------|



Pre-Chorus
Guitar 1/2:
D||-------------------------------------------------------------------|
A||-------------------------------------------------------------------|
F||--0~------------------------------0~-------------------------------|
C||--2~--2-2-2-2-2-2-2-2-2-2-2-2-2-2-4~--4-4-4-4-4-4-4-4-4-4-4-4-4-4--|
G||--3~--3-3-3-3-3-3-3-3-3-3-3-3-3-3-5~--5-5-5-5-5-5-5-5-5-5-5-5-5-5--|
C||-------------------------------------------------------------------|
         . . . . . . .                   . . . . . . .

D||-----------------------------------------------------------|
A||-----------------------------------------------------------|
F||-----------------------------------------------------------|
C||--5~--5-5-5-5-5-5-5-5-5-5-5-5-5-5-5-5-5-5-5-5-5-5-5-5-5-5--|
G||--7~--7-7-7-7-7-7-7-7-7-7-7-7-7-7-7-7-7-7-7-7-7-7-7-7-7-7--|
C||-----------------------------------------------------------|
         . . . . . . .

D||---------|
A||---------|
F||---------|
C||--5---5--|
G||--7---7--|
C||---------|



Chorus
Guitar 1/2:
D||---------------------------------------|---------------------------------------|
A||---------------------------------------|---------------------------------------|
F||--------5---5---5~-----3~---5~-----5~--|--------7---7---7~-----5~---7~-----7~--|
C||--------5---5---5~-----5~---5~-----5~--|--------7---7---7~-----5~---7~-----7~--|
G||--3333333---3---3~--3333~---3~--3333~--|--5555555---5---5~--5555~---5~--5555~--|
C||---------------------------------------|---------------------------------------|
     .....             ...         ...       .....             ...         ...

D||---------------------------------------------------------------------|
A||-----------
(Visited 1 times, 1 visits today)

Comments are closed.