Favorite Crime chords by Olivia Rodrigo

[Main Verse Fingerpicking Pattern]
     G
e|-----------------------------------------------|----------------------------------------------------|
B|-----------0---------0------------0--------0---|-----------0---------0--------------0---------------|
G|--------------0----------------------0---------|--------------0--------------0----------0-------0---|
D|-----------------0----------------------0------|-----------------0---------------0----------0-------|
A|-----------------------------------------------|----------------------------------------------------|
E|---3---3-----------------3---3-----------------|---3---3-----------------3--------------------------|
 
    Em
e|-----------------------------------------------|----------------------------------------------------|
B|-----------------------------------------------|----------------------------------------------------|
G|-----------0----------------------0------------|-----------0------------------------0---------------|
D|--------------2-----2---------------2-----2----|--------------2-----2--------2---------2------2-----|
A|-----------------2---------------------2-------|-----------------2---------------2---------2--------|
E|---0---0-----------------0---0-----------------|---0---0-----------------0--------------------------|
 
[Verse 1]
 G
Know that I loved you so bad
G
I let you treat me like that
Em
I was your willing accomplice, honey
    G
And I watched as you fled the scene
 G
Doe-eyed as you buried me
Em
One heart broke, four hands bloody
 
[Main Chorus Fingerpicking Pattern]
     D
e|-----------------------------------------------|------------------------------------------------|
B|-----------3---------3------------3--------3---|-----------3---------3-------------3------------|
G|--------------2----------------------2---------|--------------2--------------2--------2-----2---|
D|---0---0---------0-------0---0----------0------|---0---0---------0-------0-------0-------0------|
A|-----------------------------------------------|------------------------------------------------|
E|-----------------------------------------------|------------------------------------------------|
 
    Cmaj7
e|-----------0---------0-----------0---------0---|-----------0---------0--------------0-----------|
B|--------------0---------------------0----------|--------------0--------------0----------0---0---|
G|-----------------0---------------------0-------|-----------------0--------------0---------0-----|
D|-----------------------------------------------|------------------------------------------------|
A|---3---3-------------------3---3---------------|---3---3------------------3---------------------|
E|-----------------------------------------------|------------------------------------------------|
 
[Chorus]
              D
The things I did
                         Cmaj7
Just so I could call you mine
                D
The things you did
                                 Cmaj7
Well, I hope I was your favorite crime
 
[Verse 2]
 G
You used me as an alibi
G
I crossed my heart as you crossed the line
    Em
And I defended you to all my friends
         G
And now every time a siren sounds
G
I wonder if you're around
    Em
Cuz you know that I'd do it all again
 
[Chorus]
                  D
Oh, the things I did
                         Cmaj7
Just so I could call you mine
                D
The things you did
                                 Cmaj7
Well, I hope I was your favorite crime
 
[Bridge]
      Am
It's bittersweet to think about the damage that we do
    Em                            D
Cuz I was going down, but I was doing it with you
        Am
Yeah, everything we broke and all the trouble that we made
    Em                            D         Cmaj7 G
But I say that I hate you with a smile on my face
                 Cmaj7 G
Oh, look what we became
 
[Chorus]
                  D
Oh, the things I did
                         Cmaj7
Just so I could call you mine
                D
Oh, the things you did
                                 Cmaj7
Well, I hope I was your favorite crime
 
[Outro]
                G
Your favorite crime
               Em
Your favorite crime
                   N.C.
Cuz baby, you were mine
(Visited 1 times, 2 visits today)

Comments are closed.