Find Tabs by Before Their Eyes

 : Joshua Garcia (joshuag523@aol.com)

Tabs for the song: Find by Before Their Eyes
Please rate and let me know if you have any corrections. Thank you.


Tuning: Drop C (C G C F A D)


Intro
Guitar 1:
D||--------------------------------------------------------------------------------------|
A||--------------------------------------------------------------------------------------|
F||--7-7-7-10-10-10-12-12-12-14-14-14-14-14-14-14-7-7-7-10-10-10-12-12-12-9-9-9-9-9-9-9--|
C||--x-x-x-x--x--x--x--x--x--x--x--x--x--x--x--x--x-x-x-x--x--x--x--x--x--x-x-x-x-x-x-x--|
G||--5-5-5-8--8--8--10-10-10-12-12-12-12-12-12-12-5-5-5-8--8--8--10-10-10-7-7-7-7-7-7-7--|
C||--------------------------------------------------------------------------------------|


D||-----------------------------------------------------------------------------------|
A||-----------------------------------------------------------------------------------|
F||--7-7-7-10-10-10-12-12-12-14-14-14-14-14-14-14-7-7-7-10-10-10-8-8-8-8-8-8-8-8-8-8--|
C||--x-x-x-x--x--x--x--x--x--x--x--x--x--x--x--x--x-x-x-x--x--x--x-x-x-x-x-x-x-x-x-x--|
G||--5-5-5-8--8--8--10-10-10-12-12-12-12-12-12-12-5-5-5-8--8--8--6-6-6-6-6-6-6-6-6-6--|
C||-----------------------------------------------------------------------------------|


Guitar 2:
D||-------------------------------------------------------------------|
A||-------------------------------------------------------------------|
F||-------------------------------------------------------------------|
C||-------------------------------------------------------------------|
G||-------------------------------------------------------------------|
C||--0-0-0-3-3-3-5-5-5-7-7-7-7-7-7-7-0-0-0-3-3-3-5-5-5-2-2-2-2-2-2-2--|


D||-------------------------------------------------------------------|
A||-------------------------------------------------------------------|
F||-------------------------------------------------------------------|
C||-------------------------------------------------------------------|
G||-------------------------------------------------------------------|
C||--0-0-0-3-3-3-5-5-5-7-7-7-7-7-7-7-0-0-0-3-3-3-1-1-1-1-1-1-1-1-1-1--|



Verse
Guitar 1:
D||------|
A||------|
F||--7~--|
C||--x---|
G||--5~--|
C||------|


Guitar 2:
D||------|
A||------|
F||------|
C||--0~--|
G||--0~--|
C||--0~--|



Pre-Chorus
Guitar 1 (Left):
D||--------------------------------------------------|
A||------------------------8~------------8~----------|
F||----------5~-----------------5~------------5~-----|
C||-------7~-----------------------7~------------7~--|
G||--5~----------------------------------------------|
C||--------------------------------------------------|


D||--------------------------------------------------|
A||------------------------8~------------8~----------|
F||----------5~-----------------5~------------5~-----|
C||-------7~-----------------------7~------------7~--|
G||--5~----------------------------------------------|
C||--------------------------------------------------|


Guitar 2 (Right):
D||----------0~----0~--------------------------------|
A||-------------6~-----------------------------------|
F||--------------------------------------------------|
C||-------7~-----------------------------------------|
G||--------------------------------------------------|
C||--------------------------------------------------|


D||----------0~----0~--------------------0~----------|
A||-------------6~---------6~------------------------|
F||--------------------------------------------------|
C||-------7~-----------------------------------------|
G||--------------------------------------------------|
C||--------------------------------------------------|



Chorus
Guitar 1:
D||---------------------------------------------------------------------------------|
A||--10------------13------------------------------------------------------------
(Visited 1 times, 1 visits today)

Comments are closed.