Five Of Everything Tabs by 311

 Intro
----

e|------------------------------------------------------------|
B|--------------------------------------------9-9-------------|
G|--------------------------8---------------------8-8---------|
D|-6-6--6--6-6-----6-6-9-9-----9-9--9--9-9-----------9--------|
A|------------------------------------------------------------|
E|------------------------------------------------------------|

e|------------------------------------------------------------------------|
B|----------------------10-10---------------------------------------------|
G|----------------------------9-9------------11--8------------------------|
D|-11-11--11--11-11--------------11----6-9--------9--11-9-----------------|
A|-------------------------------------------------------------9--7-6-----|
E|------------------------------------------------------------------------|

e|------------------------------------------------------------|
B|--------------------------------------------9-9-------------|
G|--------------------------8---------------------8-8---------|
D|-6-6--6--6-6-----6-6-9-9-----9-9--9--9-9-----------9--------|
A|------------------------------------------------------------|
E|------------------------------------------------------------|

e|---------------------------------------------------------------|
B|----------------------10-10------------------------------------|
G|----------------------------9-9-------------11--8----8~--------|
D|-11-11--11--11-11--------------11-----6-9--------9-------------|
A|---------------------------------------------------------------|
E|---------------------------------------------------------------|

Verse/Pre-Chorus Chords
----------------------

e|--------------------------------------------------|
B|--------------------------------------------------|
G|-----------------------------------------4--------|
D|-2-----------6----------7----------2-----4--------|
A|-2-----------6----------7----------2-----2--------|
E|-0-----------4----------5----------0-----2--------|

Chorus Chords
------------

e|--------------------------------------------------|
B|--------------------------------------------------|
G|-6---------------------------------------5--------|
D|-6-----------6----------7----------2-----5--------|
A|-4-----------6----------7----------2-----3--------|
E|-------------4----------5----------0--------------|

e|--------------------------------------------------|
B|--------------------------------------------------|
G|-6---------------------------------------4--------|
D|-6-----------6----------7----------2-----4--------|
A|-4-----------6----------7----------2-----2--------|
E|-------------4----------5----------0-----2--------|

Post Chorus Riff
--------------

e|----------------------------------------------------------|
B|----------------------------------------------------------|
G|----------------------------------------------------------|
D|----------------------------------------------------------|
A|-4---2-4-2-4---2---4-------4--2-4-------4---2-4-2-4-------|
E|------------------------4----------4--4-------------------|

e|----------------------------------------------------------|
B|----------------------------------------------------------|
G|----------------------------------------------------------|
D|----------------------------------------------------------|
A|-2---0-2-0-2---0---2-------2--0-2-------2---0-2-0-2-------|
E|------------------------2----------2--2-------------------|

e|----------------------------------------------------------|
B|----------------------------------------------------------|
G|----------------------------------------------------------|
D|----------------------------------------------------------|
A|-4---2-4-2-4---2---4-------4--2-4-------4---2-4-2-4-------|
E|------------------------4----------4--4-------------------|

e|----------------------------------------------------------|
B|
(Visited 1 times, 1 visits today)

Comments are closed.