Fraser Ross – Sweet Kisses Silver Flowers Tabs

 ----------------------------------------------------------------- 
SWEET KISSES/SILVER FLOWERS - Fraser Ross 
----------------------------------------------------------------- 

Tuning: E standard, Capo 2

This is a very rough and general overview of the basic song structure. Listen to 
the song to get a feel for the rhythm and strumming pattern.

Chords used:

    C*  F/C   C    Am
e|-------0----0----0--|
B|--5----1----1----1--|
G|--5----2----0----2--|
D|--x----3----2----2--|
A|--3----3----3----0--|
E|--------------------|

Throughout the song, there's a lot of slapping on off-beats (shown in the tab as xxxx's).
You can either do this on the strings or on your pick-guard (or both). Play whatever feels right.


Intro:

     C*                               F/C         C
e|---------------------------------------------------------------|
B|------5------5------5------5----------1----x---1---------------|
G|------5------5------5------5----------2----x---0---------------|
D|-------------------------------------------x-------(let ring)--|
A|---3------3------3------3----------3-------x---3---------------|
E|--------------------------------------------------------------|
           
       Am
e|---------------------------------------------------------------|
B|---0h1--1--x--1--x--1--x--1--x--1--x--1--x--1--x---------------|
G|---0h2--2--x--2--x--2--x--2--x--2--x--2--x--2--x---------------|
D|---0h2-----x-----x--2--x--2--x--2--x--2--x--2--x---------------|
A|---------------------------------------------------------------|
E|---------------------------------------------------------------|

     C*                               F/C         C
e|---------------------------------------------------------------|
B|------5------5------5------5----------1----x---1---------------|
G|------5------5------5------5----------2----x---0---------------|
D|-------------------------------------------x-------(let ring)--|
A|---3------3------3------3----------3-------x---3---------------|
E|--------------------------------------------------------------|

       Am
e|---------------------------------------------------------------|
B|---0h1--1--x--1--x--1--x--1--x--1--x--1--x--1--x---------------|
G|---0h2--2--x--2--x--2--x--2--x--2--x--2--x--2--x---------------|
D|---0h2-----x-----x--2--x--2--x--2--x--2--x--2--x---------------|
A|---------------------------------------------------------------|
E|---------------------------------------------------------------|

     Am
e|---------------------------------------------------------------|
B|---1----1--x--1--x--1--x--1--x--1--x--1--x--1--x---------------|
G|---1----2--x--2--x--2--x--2--x--2--x--2--x--2--x---------------|
D|---0h2--2--x-----x--2--x--2--x--2--x--2--x--2--x---------------|
A|---------------------------------------------------------------|
E|---------------------------------------------------------------|


Verse (played for the rest of the song):

     C                       F/C        
e|---------------------------------------------------------------|
B|------1--x--1--x--1--x--1-----1--x--1--x--1--x--1--x-----------|
G|------0--x--0--x--0--x--0-----2--x--2--x--2--x--2--x-----------|
D|---------x-----x-----x-----------x-----x-----x-----x-----------|
A|---3-----x-----x-----x-----3-----x-----x-----x-----x-----------|
E|---------------------------------------------------------------|

End on C.




            F/C                C
Oh she said leave me and then let me go
            F/C                C
Yeah in the morning oh there I go
            F/C                     C
Back to the days where I come from
F/C                 C
Sweet kisses to you my love

And over the mountains you go
To where the rivers are so bright and bold
And the mountains are hundreds
Yes the snow goes and melts under my skin

Oh see the birds sing, the bees
As they go bow down there on their knees
As their honey is all fil
(Visited 1 times, 1 visits today)

Comments are closed.