Give Me Your Name Tabs – Dead By Sunrise

 Give Me Your Name - Tab

Tuning:
Guitar I (Rhythm): Dropped D
Guitar II (Heavy Distortion): Dropped D
Guitar III (Acoustic): Standard

Note I: Some parts of guitar II, especially the end of the 
solo, were hard to hear clearly because of the heavy 
distortion.  Also, to get the timing right for guitar II's 
parts, you just need to listen to the song as you play.

Note II: I may add the melody guitar II plays during the chorus
later.  If there is one (which I think there is) it's hard to 
hear and is subtle.

__________________

Key:

/=Slide up
\=Slide down
~=Let ring
b=bend
p=pull off
v=vibrato
()=optional note
-\=I don't know how else to write it, 
but this means slide down the string slowly.
__________________

[Intro (0:00-0:28)]
[Guitar I]
E|------------------------------------------------------------|
B|------------------------------------------------------------|
G|------------------------------------------------------------|
D|------------------------------------------------------------|
A|-9/10~----------7~----------2~----------5~------------------|
D|-9/10~----------7~----------2~----------5~------------------|

[Guitar II]
[0:05-0:28]
E|------------------------------------------------------------|
B|-13bp12bp10~----10/12\10~----10\6---------------------------|
G|----------------------------------7/9~----9\7/9~----9\4-----|
D|----------------------------------------------------9\4-----|
A|------------------------------------------------------------|
D|------------------------------------------------------------|

E|-7~----7-7----------------7------7--------------------------|
B|-8~--------8-8-8----8---8---8------8------------------------|
G|-----------------7----7-------7------7----------------------|
D|------------------------------------------------------------|
A|------------------------------------------------------------|
D|------------------------------------------------------------|

[Verse I (0:29-1:28)]
[Guitar I]
[x2]
E|------------------------------------------------------------|
B|------------------------------------------------------------|
G|------------------------------------------------------------|
D|------------------------------------------------------------|
A|-9/10~----------7~----------2~----------5~------------------|
D|-9/10~----------7~----------2~----------5~------------------|

[Guitar II]
[0:29-0:36]
E|------------------------------------------------------------|
B|---------------------8b--8/10b--10~-------------------------|
G|------------------------------------------------------------|
D|-9/10~------------------------------------------------------|
A|------------------------------------------------------------|
D|------------------------------------------------------------|

[0:50-1:00]
E|------------7---7---------7/10--8p7-------------------------|
B|-----8~--8----8----7/8--------------------------------------|
G|-7\4-7~------------7-7--------------------------------------|
D|-7\4--------------------------------9/10~-------------------|
A|------------------------------------------------------------|
D|------------------------------------------------------------|

[1:04-1:19]
E|------------------------------------------------------------|
B|-8b--8/10b--10~----------8--------------12\10/12~-----------|
G|------------------------------------------------------------|
D|----------------------------(5~)----------------------------|
A|------------------------------------------------------------|
D|------------------------------------------------------------|

[1:20-1:28]
E|----------------------------12v~----------------------------|
B|-10\7/8v~------12\10/12~------------------------------------|
G|------------------------------------------------------------|
D|------------------------------------------------------------|
A|------------------------------------------------------------|
D|------------------------------------------------------------|

[Chorus I (1:29-1:57)]
[Guitar I/II
(Visited 1 times, 1 visits today)

Comments are closed.