Glow Tabs – Thousand Foot Krutch

 -------------------------------------------------------------------------------
                         Glow - Thousand Foot Krutch
-------------------------------------------------------------------------------
: StevenBeaven90
 stevenkotelnikov
Feel free to email me if you have any questions about this tab or any other of my tabs.

Tuning: Drop D
Note: Not all the bends in the song are equal. Some are small and quick while others are 
big and extend over a couple of seconds. Listen to make the distinction.

[Intro](0:00-0:08)
Guitar 1
e|---------------------------------------------------------------------------|
B|---------------------------------------------------------------------------|
G|-----9-----9--------7-----7--------7-----7---------7------7----------------|
d|---7-----7--------7-----7--------7-----7---------9------9------------------|
A|-------------------------------8-----8------8/10-----10------10------------|
D|-7-----7------7-5-----5------5---------------------------------------------|

Guitar 2
e|---------------------------------------------------------------------------|
B|---------------------------------------------------------------------------|
G|-------------------------------------------------4-------------------------|
d|--------------------------------------------5------7---5-------------------|
A|--------------------------------------------5------------------------------|
D|---------------------------------------------------------------------------|

[Verse I](0:08-0:45)
Guitar 1 (x4)
e|---------------------------------------------------------------------------|
B|---------------------------------------------------------------------------|
G|-----9-----9--------7-----7--------7-----7---------7------7----------------|
d|---7-----7--------7-----7--------7-----7---------9------9------------------|
A|-------------------------------8-----8------8/10-----10------10------------|
D|-7-----7------7-5-----5------5---------------------------------------------|

Guitar 2
e|---------------------------------------------------------------------------|
B|---------------------------------------------------------------------------|
G|-------------------------------------------------4-------------------------|
d|--------------------------------------------5------7-5b--------------------|
A|--------------------------------------------5--------5b--------------------|
D|---------------------------------------------------------------------------|

e|---------------------------------------------------------------------------|
B|---------------------------------------------------------------------------|
G|-------------------------------------------------4-------------------------|
d|--------------------------------------------5------7-5b--------------------|
A|--------------------------------------------5--------5b--------------------|
D|---------------------------------------------------------------------------|

e|---------------------------------------------------------------------------|
B|---------------------------------------------------------------------------|
G|-------------------------------9b------------------------------------------|
d|------------------------------------------------------9b-------------------|
A|---------------------------------------------------------------------------|
D|---------------------------------------------------------------------------|

e|---------------------------------------------------------------------------|
B|---------------------------------------------------------------------------|
G|-----------------------------------------------4---------------------------|
d|-------------------------------3---2-----/5------7---5---------------------|
A|---------------------------------------3-/5--------------------------------|
D|---------------------------------------------------------------------------|

[Pre-chorus I](0:45-1:03)
Guitar 1
e|-------
(Visited 1 times, 1 visits today)

Comments are closed.