Good Girl Tabs – Carrie Underwood

 -------------------------------------------------------------------------------
                          Good Girl - Carrie Underwood
-------------------------------------------------------------------------------
: Tristsn S
Type: Personal Interpretation of Song
Tuning: Standard
Capo: No
# of Guitars: 2


   ***INTRO***:
e|---------------------------------------------------------------------------|
B|---------------------------------------------------------------------------|
G|-------5-------8/10--8----3-3-----5----------------------3-3----3/(5-------|
D|-------5-------8/10--8----3-3-----5-------1-3--3h4p3-1---3-3----3/(5)------|
A|-------3-------6/8---6----1-1-----3-----3----------------1-1----1/(3)------|
E|---------------------------------------------------------------------------|  X2


   ***VERSE*** (When Singing Starts): 
e|---------------------------------------------------------------------------|
B|---------------------------------------------------------------------------|
G|-------5-------8/10--8----3-3-----5-------8/10--8----3-3----3/(5)----------|
D|-------5-------8/10--8----3-3-----5-------8/10--8----3-3----3/(5)----------|
A|-------3-------6/8---6----1-1-----3-------6/8---6----1-1----1/(3)----------|
E|---------------------------------------------------------------------------|  X3

   Last Bar Before Chorus:
e|---------------------------------------------------------------------------|
B|---------------------------------------------------------------------------|
G|-------5---------8/10--8----3-3-----5----3----2----3-----------------------|
D|-------5---------8/10--8----3-3-----3----3----2----3-----------------------|
A|-------3---------6/8---6----1-1-----3----1----0----1-----------------------|
E|---------------------------------------------------------------------------|

   ***CHORUS***: 

   GUITAR 1 Lead:
e|---------------------------------------------------------------------------|
B|---------------------------------------------------------------------------|
G|---------------------------------------------------------------------------|
D|---------------------------------------------------------------------------|
A|-----------------------------6-------8/10---8~ ----------------------------|
E|----------------4----6-6/8-------8-----------------------------------------|  X3


   GUITAR 2 Rhythm played with G1:
e|---------------------------------------------------------------------------|
B|---------------------------------------------------------------------------|
G|-----------------------------8--8------------------------------------------|
D|----------------6---6--------8--8-----------8--8--8----8/10--10------------|
A|----------------6---6--------6--6-----------8--8--8----8/10--10------------|
E|----------------4---4-----------------------6--6--6----6/8---8-------------|  X3
  Down/Up Stroke  D   D        D  U           D  D  U    D U   D


  GUITAR 1&2 Last Bar:
e|---------------------------------------------------------------------------|
B|---------------------------------------------------------------------------|
G|---------------------------------------------------------------------------|
D|----------------6------------------------------8--8--8--8--8--8------------|
A|----------------6------------------------------8--8--8--8--8--8------------|
E|----------------4-----------------------------=6--6--6--6--6--6------------| 
   Strokes:       D                              D  D  D  D  D  D    



  *****Can do Palm Muted Up and Down Strokes during rest bar just 
       after chorus, then continue to this:










   ***Post Chorus Bridge***:

   GUITAR 1:
e|------------6--------------6-------------10--------------------------------|
B|--------4----------------8------------------11----13-------11--------------|
G|----------5------------8--------------10-------10----10-------10-----------|
D|-----------------------------------12-------------------12-------12--------|
A|------3-
(Visited 1 times, 1 visits today)

Comments are closed.