Good Timin Man Tabs – Whitey Morgan and the 78s

 http://whiteymorgan.com

-------------------------------------------------------------------------------
        Good Timin' Man - Whitey Morgan and the 78's
-------------------------------------------------------------------------------
Tuning: Standard 


There aren't many tabs for this band on here, and I figured I try one. This is my first attempt at 
transcribing anything, so any suggestions are greatly appreciated. Thank you.

P.S. I have Am in the chorus, but I don't think it's what is played, but it's the only thing I could get
to sound even remotely close.


Intro:

    C                          F                        C
e|---------------------------------1-----------1------------------------------|
B|------1---1---------1---1----------1---1-------1---1------1---1-------------|
G|--------0---0---------0---0----x-----2-----2-----2----------0---0-----------|
D|----2-------------2----------3-----------3--------------2-------------------|
A|--3-------------3-------------------------------------3---------------------|
E|----------------------------------------------------------------------------|
    G           C
e|------3-------------------0-------------------------------------------------|
B|--------0---0-----1-------1-------------------------------------------------|
G|----------0-------------0-0-------------------------------------------------|
D|----0-----------2---0h2-----------------------------------------------------|
A|--------------3-------------------------------------------------------------|
E|--3-------------------------------------------------------------------------|

Verses:

Three nights in old Arizona 
    C                        F
e|-------------------------------1-----1---------1----------------------------|
B|------1---1-------1---1----------1-----1---------1--------------------------|
G|--------0---0-------0---0----2-----2---------------2------------------------|
D|----2-----------2----------3----------------3-------------------------------|
A|--3-----------3-------------------------------------------------------------|
E|----------------------------------------------------------------------------|

Gotta get me outta California
    C                        F
e|-------------------------------1------------1--------------------------------|
B|------1---1-------1---1----------1---1--------1---1--------------------------|
G|--------0---0-------0---0----2-----2------2-----2----------------------------|
D|----2-----------2----------3------------3------------------------------------|
A|--3-----------3--------------------------------------------------------------|
E|-----------------------------------------------------------------------------|

Yea she's        waitin' there for me
    C             G               C
e|--------------------3-------------------------------------------------------|
B|------1---1-----------0---0----------1---1----------------------------------|
G|--------0---0-----------0--------------0---0--------------------------------|
D|----2-------------0----------------2----------------------------------------|
A|--3------------------------------3------------------------------------------|
E|----------------3-----------------------------------------------------------|
   C                       G            C
e|------------------------------3--------------------0------------------------|
B|------1---1-------1---1---------0---0------1-------1------------------------|
G|--------0---0-------0---0---------0--------------0-0------------------------|
D|----2-----------2-----------0------------2---0h2----------------------------|
A|--3-----------3------------------------3------------------------------------|
E|--------------------------3-------------------------------------------------|

Feelin' wrong but I'll get right
    C                          F
e|-----------------------------1----1------------1------------------------------|
B|--1----1---1-------1---1-----1------1---1-------

Comments are closed.