Guilty Youre Already Dead Tabs – Wilson

 Wilson: Guilty (You're Already Dead)

: mysticguitar77

Facebook: https://www.facebook.com/MysticGuitar77
YouTube Channel: https://www.youtube.com/user/MysticGuitar77

Date last modified: December 14, 2015

Tuning: Drop C# (C#,G#,C#,F#,A#,D#)

Riff 1
D#|---------------------------------------------------|
A#|---------------------------------------------------|
F#|---------------------------------------------------|
C#|---------------------------------------------------|
G#|-12-----------10-----------8-----------7-----------|
C#|----7--7-7--7----7--7-7--7---7--7-7--7---7--7-7--7-|

D#|---------------------------------------------|
A#|---------------------------------------------|
F#|---------------------------------------------|
C#|---------------------------------------5-7-5-|
G#|-12-----------10-----------8-----------5-7-5-|
C#|----7--7-7--7----7--7-7--7---7--7-7--7-5-7-5-|

D#|---------------------------------------------------|
A#|---------------------------------------------------|
F#|---------------------------------------------------|
C#|---------------------------------------------------|
G#|-12-----------10-----------8-----------7-----------|
C#|----7--7-7--7----7--7-7--7---7--7-7--7---7--7-7--7-|

D#|----------------------------------------------|
A#|----------------------------------------------|
F#|---------------------------------------5-7-5\-|
C#|---------------------------------------5-7-5\-|
G#|-12-----------10-----------8------------------|
C#|----7--7-7--7----7--7-7--7---7--7-7--7--------|

Fill 1
D#|---------------------------------------------|
A#|---------------------------------------------|
F#|-9--9--9--9--9--9--9--9--9--9--9--9--9--9--9-|
C#|-7--7--7--7--7--7--7--7--7--7--7--7--7--7--7-|
G#|-0--0--0--0--0--0--0--0--0--0--0--0--0--0--0-|
C#|---------------------------------------------|

Fill 1 note: Immediately mute the chords so they don't ring out.

Riff 2   "Yeah I got your number..."
D#|-------------------------------------------|
A#|-------------------------------------------|
F#|-7--9-9-7-9\------12--7--9-9-7-9\------5-7-|
C#|-7--7-7-7-7\------10--7--7-7-7-7\------5-5-|
G#|-------------------------------------------|
C#|-------------------------------------------|

D#|-------------------------------------------------------|
A#|-------------------------------------------------------|
F#|-7--9-9-7-9\------12--7--9-9-7-9\--2-2-2-2-2-2---------|
C#|-7--7-7-7-7\------10--7--7-7-7-7\--2-2-2-2-2-2-7-5-0-2-|
G#|-----------------------------------0-0-0-0-0-0-7-5-0-2-|
C#|-----------------------------------------------7-5-0-2-|
                                      * * * * * *

Riff 3   "Yeah you thought you'd take it to your grave..."
D#|---------------------------|
A#|----------------3--3-3-3---|
F#|----5--5-5------2--2-2-2---|
C#|-3--3--3-3---0--0--0-0-0-0-| x2
G#|-3--3--3-3-x-0--0--0-0-0-0-|
C#|-3--3--3-3-x-0--0--0-0-0-0-|

D#|------------------------------|
A#|----------------3-3-----------|
F#|----5--5-5------2-2-----------|
C#|-3--3--3-3---0--0-0-2-2-2-2-2-|
G#|-3--3--3-3-x-0--0-0-2-2-2-2-2-|
C#|-3--3--3-3-x-0--0-0-2-2-2-2-2-|

Riff 4   "So say it, say it, you know what you did..."
D#|---------------------------------------------------|
A#|---------------------------------------------------|
F#|---------------------------------------------------|
C#|---------------------------------------------------|
G#|-12-----------10-----------8-----------7-----------|
C#|----7--7-7--7----7--7-7--7---7--7-7--7---7--7-7--7-|

D#|--------------------------------------------------------------------------|
A#|--------------------------------------------------------------------------|
F#|--------------------------------------------------------------------------|
C#|---------------------------------------5-7-5------7------5------3------2/-|
G#|-12-----------10-----------8-----------5-7-5------------------------------|
C#|----7--7-7--7----7--7-7--7---7--7-7--7-5-7-5--3-3----3-3----0-0----2-2----|

1
(Visited 1 times, 1 visits today)

Comments are closed.