Hey Brother solo Tabs by Avicii

 Trumpet Solo
e|-------|--------------------------------------------------------|
B|-------|-----------6-8-8-6---------------6—8h10p8---------------|
G|-------|---------7---------------------7---------10—7p5---------|
D|-8-7---|-5-5-5-8-----------------8---8------------------8-5-5-5-|
A|-------|---------------------8h10-------------------------------|
E|-------|--------------------------------------------------------|

e|-----------------------------------------------------|
B|---------8-8-6--------------6--8-h10p8---------------|
G|-------7------------------7-----------10—7p5---------|
D|---5-8--------------8---8-------------------8-5-5-5--|
A|----------------8h10---------------------------------|
E|-----------------------------------------------------|

 
e|-----------------------------------------------------|
B|------6-8-8-6---------------6—8h10p8-----------------|
G|----7---------------------7---------10—7p5-----------|
D|--8-----------------8---8------------------8-5-5-5---| 
A|---------------8h10----------------------------------|
E|-----------------------------------------------------|

e|------------------------------------|
B|---------8-8-6-----------8-6---6----|
G|-------7---------------------7---5--|
D|---5-8--------------8---------------|
A|----------------8h10----------------|
E|------------------------------------|

      
e|--------------------------------------------------------|
B|-----------6-8-8-6---------------6—8h10p8---------------|
G|---------7---------------------7---------10—7p5---------|
D|-5-5-5-8-----------------8---8------------------8-5-5-5-|
A|---------------------8h10-------------------------------|
E|--------------------------------------------------------|



e|--------------------------------------------------------|
B|---------8-8-6---------------6-8h10p8-------------------|
G|-------7-------------------7----------10—7p5------------|
D|---5-8--------------8----8-------------------8-5--------|
A|----------------8h10------------------------------------|
E|--------------------------------------------------------|

Comments are closed.