Hillbilly Man Tabs – Gorillaz Vsion 1

 -------------------------------------------------------------------------------
                          HILLBILLY MAN - Gorillaz
-------------------------------------------------------------------------------
: Seismatters

Tuning: Standard E A D G B E


INTRO + FIRST HALF OF SONG (ends with 'Three lanes full')

e|-----------------6--4--3------------------------6---3---6---3--------------|
B|-4--4---6---4-6--4--------6--4--4--4---6---4-6--4--------------------------|
G|-5--5---5--------3--------------5--5---5--------3--------------------------|
D|-3--3---3--------5--------------3--3---3--------5--------------------------|
A|---------------------------------------------------------------------------|
E|---------------------------------------------------------------------------|


SECOND HALF OF SONG (starts with 'Got a ride in my heart')

e|---------------------------------------------------------------------------|
B|---------------------------------------------------------------------------|
G|-0--0----0--1-1-1----0--0----0--3-3-3--------------------------------------|
D|-1--1----1--3-3-3----1--1----1--5-5-5--------------------------------------|
A|-3--3----3--3-3-3----3--3----3--5-5-5--------------------------------------|
E|---------------------------------------------------------------------------|

Comments are closed.