Hordalands Doedskvad Part I Tabs – Taake

 

Taake- Hordaland Doedskvad part I

Tuning :stantard EADGBe

"=Tremolo picking

\m/ Helnorsk svart metall !\m/

        Riff 1

e|----------------------------------------------------------------------------------|
B|------------------------------------------10/11/10--------------------------------|
G|-------------------------------------------9/10/9---------------------------------|      x3
D|----10-9-----10-12-----9-7-9-10-12--10-9---7/8 /7------9-7-5-10----9-7-5-4-"-"----|
A|-0--8--7--0--8--10--0--7-5-7-8--10--8--7------------0--7-5-3-8--0--7-5-3-2-5-7----|
E|-"--"--"--"--"--"---"--"-"-"-"---"--"--"------------"--"-"-"-"--"--"-"-"-"-3-5----|


       Riff 2


          2a                                    2b
|----------------------------|         |-------------------------------------|
|----------------------------|         |-------------------------------------|
|--4--4--4--5---0-0-4--------|         |-4--4--4--5---0-0-0------------------|
|--5--4---5--5--4-2-5-7-5-4--|   x1    |-5--4---5--5--4-2-0-------7-5-4------|x1
|--7--5---------3-3-7--------|         |-7--5---------3-3-2------------------|
|--"--"---------"-"-"--------|         |-"--"---------"-"-3------------------|

2a again ,then :   |-------------------------------------|
                   |-----------------7-5-----------------|
                   |----4--4--4--5---5-5-0---------------|
              2c   |----5--4---5--5--5-5-0------7-5-4----|
                   |----7--5--------"--"-2---------------|
                   |----"--"-------------3---------------|


Riff 1 x3
Riff 2 (a->b->a->c) x1 without the last:  D|--7-5-4--|


                     Riff 3
                                       3a
|--------||------------------------------------------|
|--------||------------------------------------------|
|-4-2----||-------------3p2h3p2----------5------4----| x1
|-4-2----||-2-------2-3----------2---------3--2------|
|-2-0----||-0-0-0-0--------------0-0-0-0-------------|
|--------||------------------------------------------|

                    3b                                    3c                
|------------------------------------------------|  |----------------------------------------|
|------------------------------------------------|  |----------------------------------------|
|-------------3p2h3p2----------------------------|  |------------3p2h3p2------------------4--|
|-2-------2-3---------3---5---5-5-5-5-5-5--------|x1|-2-------2-3----------2---------3--2----|x1
|-0-0-0-0-----------------3---3-3-3-3-3-3--------|  |-0-0-0-0--------------0-0-0-0-0---------|
|------------------------------------------------|  |----------------------------------------|

                      3d
|------------------------------------------------------|
|-------------------------------------------13--13--13-|
|-------------3p2h3p2----------------------------------|
|-2-------2-3---------3---5--5--5--5--5--5-------------|x1
|-0-0-0-0-----------------3--3--3--3--3--3-------------|
|------------------------------------------------------|

Then repeat [3a, 3b]x4

Solo
|-------------------------------------------------------------------------------------------------------|
|-------------------14-15-14-----------------------------------------------------------------------10---|
|-14-14-14-14-14-15------------14---15-14--14\---------------------------------9h10p9h10p9h10p9h10------|
|--------------------------------------------------------------7h8p7h8p7h8p7h8------------------------7-|
|----------------------------------------------7h8p7h8p7h8p7h8------------------------------------------|
|-------------------------------------------------------------------------------------------------------|

 Fill A                              Fill B
|---------------------------------||----------------|
|---------------------------------||----------------|
|---------------------------------||----------------|
|-2-5-5-5-5-5-2---5-5-5-5-5-5-----||----------------|
|-3-3-3-3-3-3-3---3-
(Visited 1 times, 1 visits today)

Comments are closed.