Hybrid Theory album Tabs by Linkin Park V4

 Alright, here we are, a full Hybrid Theory album tablature.
This is the best-selling rock album of the 2000s.  So if you know
this, you know good stuff!  I assure you that you will have
fun with it! Riffs are easy and few (many songs have two lone riffs).  Majority of it is 
power chords and octave chords.  Great for
beginners who want to play alternative metal guitar.  I added in some optional, 
alternate ways to play some riffs to give your playing
an extra edge, since the riffs are so plain and sometimes repetitive.
Btw, this is my first tab (not counting the "pre-release" of my
Runaway tab).

Most of the songs are in Drop Db (Drop C# and Drop Db mean the exact
same thing).  Tune the whole guitar down a half step, and then down-tune
the E string a full step.  Let's work through this album!

Special thanks to Kirjai on YouTube for his HT lessons.  They helped
a lot in making this tab.

* - harmonic
+ - pinch-harmonic
/ - slide up
\ - slide down
~ - ring out
b - bend
h - hammer on
x - muted string
. - palm mute
When I place frets with no dashes in between, that means staccato
picking (real fast picking).


                        LINKIN PARK : [HYBRID THEORY]

    \
     \  |            ________________             __
      \_|__         |      ________  |            \ \            _|____
     | \|  |        | |   |        | |       ______\ \    \\ \  ( |    \
   __|__|__|__      | |   |________| |      (_______  )       \  \|     \
     |  |\ |        | |            | |             / /         \  |______)
     |__|_\|        | |_________   | |            /_/        ___\_|___
        |  \        |________________|                            |
        |LP \                                                     |
             \                                                    |
                                                                  |

These riffs wouldn't be here without Brad Delson.

_________________________________________________


Track 1 - Papercut
Tuning - Drop Db
This whole song is played with distortion.

Intro: (this might be keyboard, but it sounds like looped guitar to me)
Eb|--10------12------13------12----------|
Bb|------10------10------10------10------|
Gb|--------------------------------------|
Db|--------------------------------------| x4
Ab|--------------------------------------|
Db|--------------------------------------|
This is also played during the chorus.

Chorus:
Eb|---------------------------------------|
Bb|---------------------------------------|
Gb|--------10---9---5---5--5-5-5-5-5-5----|
Db|--0-0-0-x----x---5---5--5-5-5-5-5-5----| x4
Ab|--0-0-0-8--0-7-0-3---3--3-3-3-3-3-3----|
Db|--0-0-0----0---0-3---3--3-3-3-3-3-3----|

Verse:     Riff 1                         Riff 2
Eb|-------------------------|----------------------------------|
Bb|-------------------------|----------------------------------|
Gb|-------------------------|goes------------------------------|
Db|-------------------------|into------------------------------|
Ab|--0-0-0---1----111-0-0---|------1-1-3-0-0-0---1----111-0-0--|
Db|--0-0-0------------------|------1-1-3-0-0-0-----------------|
     . . .   .    ... . .          . . . . . .   .    ... . .
The first verse goes Riff 2, Riff 1 x3, Riff 2, Riff 1, Riff 2, Riff 1.
The 2nd verse goes Riff 2 x5 then Riff 1, then Riff 2 x2.

After the 2nd chorus, play this:
Eb|-----------------|
Bb|-----------------|
Gb|-----------------|
Db|--1-1-3-0-0-0----|
Ab|--1-1-3-0-0-0----|
Db|--1-1-3-0-0-0----|
     . . . . . .

Bridge/2nd Chorus:  Riff 1                           Riff 2
Eb|--------------------------------------|-----------------------------|
Bb|--------------------------------------|-----------------------------|
Gb|--------------------------------------|-----------------------------|
Db|--10-10-10---10-10/-12--12--12--12-12-|-7-7-7---7----7----7-7-7-x-x-|
Ab|--8--8--8----8--8
(Visited 1 times, 1 visits today)

Comments are closed.