I Cant Hear You Tabs by The Dead Weather V3

 (b) Bend

\/\/\/\/\/\/\/\/\/\/\/\/\/\/\/\/\/\/\/\/\/\/\/\/\/\/\/\/\/\/\/\/\/\/\/\/\/\/\
                   I Can't Hear You - The Dead Weather
\/\/\/\/\/\/\/\/\/\/\/\/\/\/\/\/\/\/\/\/\/\/\/\/\/\/\/\/\/\/\/\/\/\/\/\/\/\/\

Standard E Tuning (EADGBE)

: Billy Z.
 zillybaletel

First tab I hope you enjoy :D


Verse (Palm Muted)
E|------------------------------------------------------------|
B|------------------------------------------------------------|
G|------------------------------------------------------------|
D|------------------5-3---------------------------------------|
A|--------3-5----3-3---5-3------------------------------------|
E|--3-3-5----3-5----------6-----------------------------------|

Chorus (No Mute)
E|-------------------------------------------------------------|
B|-------------------------------------------------------------|
G|---------3b--------------------------3b----------------------|
D|-------------5-55-3-5-----55-3-5-------5-55-3-5--5-3---------|
A|------------------------------------------------------5-3----|
E|--3-3----------------------------------------------------6-3-|
(Visited 1 times, 1 visits today)

Comments are closed.