I Dont Owe You Anything Tabs by Smiths V3

 -------------------------------------------------------------------------------
                            I DONT OWE YOU ANYTHING - The Smiths
-------------------------------------------------------------------------------
: OrangeTrousers

Tuning: Standard with Capo on 2nd Fret


INTRO
e|-----3-----3-----|-----5-----5-----|-----5-----5-----|-----5-----5-----|
B|-----5-----5-----|-----5-----7-----|-----7-----7-----|-----7-----7-----|
G|-----4-----4-----|-----6-----6-----|-----6-----6-----|-----6-----6-----|
D|-----5-----5-----|-----7-----7-----|-----7-----7-----|-----7-----7-----|
A|-----3-----3-----|-----0-----0-----|-----5-----5-----|-----5-----5-----|
E|-----------------|-----------------|-----------------|-----------------|
   ^   ^   ^   ^     ^   ^   ^   ^     ^   ^   ^   ^     ^   ^   ^   ^

VERSE
e||-----5-----5-----|-----5-----5-----|-----5-----5-----|-----5-----------|
B||-----7-----7-----|-----7-----7-----|-----7-----7-----|-----7-----------|
G||-----6-----6-----|-----6-----6-----|-----6-----6-----|-----6-----------|
D||-----7-----7-----|-----7-----7-----|-----7-----7-----|-----7---0-------|
A||-----5-----5-----|-----5-----5-----|-----5-----5-----|-----5-------0---|
E||-----------------|-----------------|-----------------|-----------------|
    ^   ^   ^   ^     ^   ^   ^   ^     ^   ^   ^   ^     ^   ^   ^   ^
                                     |First Time                    Repeat
e|-----------------|-------0---------|-----5-----5-----|-----5-----5-----||
B|-----0-----3--/5-|-----------0-----|-----7-----7-----|-----7-----7-----||
G|---------0-------|-------------6---|-----6-----6-----|-----6-----6-----||
D|-------4---------|-----7---7-----7-|-----7-----7-----|-----7-----7-----||
A|---5---------0---|---0-------------|-----5-----5-----|-----5-----5-----||
E|-3---------------|-----------------|-----------------|-----------------||
   ^   ^   ^   ^     ^   ^   ^   ^     ^   ^   ^   ^     ^   ^   ^   ^

 |Second Time                     ...Bridge
e|-----5-----5-----|-----5-----------|-----------------|-------0---------|
B|-----7-----7-----|-----7-----------|-----0-----3--/5-|-----------0-----|
G|-----6-----6-----|-----6-----------|---------0-------|-------------6---|
D|-----7-----7-----|-----7---0-------|-------4---------|-----7---7-----7-|
A|-----5-----5-----|-----5-------0---|---5---------0---|---0-------------|
E|-----------------|-----------------|-3---------------|-----------------|
   ^   ^   ^   ^     ^   ^   ^   ^     ^   ^   ^   ^     ^   ^   ^   ^

e|-----5-----5-----|-----5---5---4---|-----3-----3-----|-----5-----5-----|
B|-----7-----7-----|-----7---7---6---|-----5-----5-----|-----5-----7-----|
G|-----6-----6-----|-----6---6---5---|-----4-----4-----|-----6-----6-----|
D|-----7-----7-----|-----7---7---6---|-----5-----5-----|-----7-----7-----|
A|-----5-----5-----|-----5---5---4---|-----3-----3-----|-----0-----0-----|
E|-----------------|-----------------|-----------------|-----------------|
   ^   ^   ^   ^     ^   ^   ^   ^     ^   ^   ^   ^     ^   ^   ^   ^

e||-----5-----5-----|-----5---5---4---|-----0-----------|-----------------||
B||-----7-----7-----|-----7---7---6---|-----------0-----|-----0-----0-----||
G||-----6-----6-----|-----6---6---5---|---------------4-|/6-----------6---||
D||-----7-----7-----|-----7---7---6---|---5-----5-------|---7---7-------7-|| x2
A||-----5-----5-----|-----5---5---4---|-3-----3-----3---|-----------------||
E||-----------------|-----------------|-----------------|-----------------||
    ^   ^   ^   ^     ^   ^   ^   ^     ^   ^   ^   ^     ^   ^   ^   ^

e|-----------------|-----------------|-----3-----3-----|-----5-----5-----|
B|-----3-----2-----|-----3-----2-----|-----5-----5-----|-----5-----7-----|
G|---------------4-|---------------2-|-----4-----4-----|-----6-----6-----|
D|---4-----4-------|---4-----4-------|-----5-----5-----|-----7-----7-----|
A|-2-----2-----2---|-2-----2-----2---|-----3-
(Visited 1 times, 1 visits today)

Comments are closed.