If I Move To Mars Tabs – Thomas Oliver

 If I Move To Mars – Thomas Oliver

 Tuning of recording: A = 432Hz 
(Standard tuning but all strings tuned down slightly)


Intro/verse/chorus:

 [Fmin7]                [Eb/G]              [Eb]
e||-----------------------------------------------------------------|
B||--------------9--x-------------------------------x---------------|
G||--------------8--x-------8------------8----------x----8----------|
D||---------6-------x-------8------------8----------x----10p8-------|
A||-8---------------x----/10------------------------x-----------h11-|
E||-----------------------------------------10---10-----------------|
                                            ˅    ˄             
 [Cmin7] [Dbmaj7]        [Bbmin7]
e||-----------------------------------------------------------------|
B||-8-------9-------x-------6-----------------------x---------------|
G||-8-------10------x-------6-----------------------x---------------|
D||-8-------10------x-------6-----------------------x----x----------|
A||-----------------x-------------------------------x-------6-------|
E||-8-------9---------------6------------6--6----6------------------|
                                         ˄  ˅    ˄                     
 [Fmin7]                [Eb/G]
e||-----------------------------------------------------------------|
B||--------------9--x-------------------------------x---------------|
G||--------------8--x-------8------------8----------x---------------|
D||---------6-------x-------8------------10p8-------x----x----------|
A||-8---------------x----/10--------------------h11-x---------------|
E||---------------------------------------------------------10------|

 [Bbmin7][Dbmaj7]                                       [Eb]
e||-----------------------------------------------------------------|
B||------------------------------9---------------9--x----8----------|
G||-6-------10-----------10--------------10---------x----8----------|
D||-6-------10--------------10------10------10------x----8----------|
A||-------------------------------------------------x----6----------|
E||-6-------9-------------------------------------------------------|


Bridge:

   [Eb]
e||-----------------------------------------------------------------|
B||-8---------------------------------------------------------------|
G||-8---------------------------------------------------------------|
D||-8---------------------------------------------------------------|
A||-6---------------------------------------------------------------|
E||-----------------------------------------------------------------|

 [Bbmin7]
e||-----------------------------------------------------------------|
B||-6---------------------------------------------------------------|
G||-6---------------------------------------------------------------|
D||-6---------------------------------------------------------------|
A||-----------------------------------------------------------------|
E||-6---------------------------------------------------------------|  

   [Eb]
e||-----------------------------------------------------------------|
B||-8---------------------------------------------------------------|
G||-8---------------------------------------------------------------|
D||-8---------------------------------------------------------------|
A||-6---------------------------------------------------------------|
E||-----------------------------------------------------------------| 

 [Cmin7]                 [Dbmaj7]
e||-----------------------------------------------------------------|
B||-8---------------x-------9-----------------------x---------------|
G||-8---------------x-------10----------------------x---------------|
D||-8---------------x-------10----------------------x---------------|
A||-----------------------------------------------------------------|
E||-8---------------x-------9-----------------------x---------------|  

   [Eb]
e||-----------------------------------------------------------------|
B||-8------------
(Visited 1 times, 1 visits today)

Comments are closed.