If I Tremble Tabs by Front Porch Step

 Standard Tuning
Capo 1st Fret
My First tab ever. Sounds about right.


Intro/verse
E|--------------------------|
B|--------------------------|
G|--------------------------|
D|--------------------------|
A|----------------9(x5)8(x2)|
E|9(x8)8(x8)6(x9)-----------|x4

Chorus

E|---------------------------------------|
B|---------------------------------------|
G|------------------------(11)----(10)---|
D|(11)---(10)-----8-------9-------8------|
A|9-------8-------6-------9--(x5)-8--(x2)|
E|9--(x8)-8--(x8)-6--(x9)----------------|x4

Repeat as necessary
(Visited 1 times, 1 visits today)

Comments are closed.