If The Creek Dont Rise Tabs – Dylan Leblanc

 -------------------------------------------------------------------------------
            If The Creek Don't Rise - Dylan LeBlanc
-------------------------------------------------------------------------------
: Jacco
Hi, I saw there was no tab (only chords) for this beautiful song by Dylan LeBlanc so i thought I'd make one.
It's pretty easy and its the same pattern for the whole song, so it wont take you long to learn it!
Amazing campfire song for upcoming summer btw.

Tuning: EADGBe (standard)

No Capo
Play this over and over again
   Dm            C          G
e|-0h1---1p0-------- 3-----------------------------|
B|-3---3-----3---1----------3-----3----3----3------|
G|------2-----2----0-----0-------0----0----0----0--|
D|-0--------------------2--------------------------|
A|---------------3-----3---------------------------|
E|--------------------------3--3----3----3----3----|

Often he makes a little variation where he plays the G chord with B and e string instead of G and B

   Dm            C          G
e|-0h1---1p0-------- 3------3-----3----3----3------|
B|-3---3-----3---1---------------3----3----3----3--|
G|------2-----2----0-----0-------------------------|
D|-0--------------------2--------------------------|
A|---------------3-----3---------------------------|
E|--------------------------3--3----3----3----3----|

Lyrics:

Intro: 2x

Well I get tied down when you cross my mind
Won't let me back in, but I won't stop trying
Tried to untie the knot but it's tied pretty tight.
Oh, that knot in your heart when you left that night

This love is like water and water gets rough
Had all I can stand but I can't get enough
Let me love you again, give me one more try
Oh if the good Lord's willin' and the creek don't rise

Someone remind me not to be reminded of you
'Cause everything's fine, God I wish it were true
And you run from me like I'm the edge of death
Honey, please stop running and catch your breath

'Cause love is like water and water gets rough
You can drown underneath the surface
So keep your head out

Let me love you again, I think we'll make it this time
Oh if the good Lord's willin' and the creek don't rise
Oh if the good Lord's willin' and the creek don't rise

Ending: 2x

************************************
| h   hammer-on
| p   pull-off
************************************
(Visited 1 times, 1 visits today)

Comments are closed.