If You Go Im Coming Along chords – Fossil Collective

 -------------------------------------------------------------------------------
                If you go (I'm coming along)- Fossil Collective
-------------------------------------------------------------------------------
:drewsjam

Tuning: standard

Absolutely gorgeous song... and also really simple. Fossil Collective is one of my 
favorite bands ever. I'll try to tab some more of their songs.

Capo 1 (chords as if they were in open)

Chords Used


e|-----3-----------3------------3--------------------------------------------|
B|-----3-----------3------------3--------------------------------------------|
G|-----0-----------0------------0--------------------------------------------|
D|-----0-----------2------------2--------------------------------------------|
A|-----2-----------3------------0--------------------------------------------|
E|-----3------------------------2--------------------------------------------|
        G Cadd9 Gsus2  (?)

Chords strummed for four beats each  (listen to song) except for Gsus2 during chorus 
which gets 1 beat (In parenthesis.
Chord changes positioned roughly over lyrics.
Sometimes there is a pointer finger hammer-on in the G chord, add when you feel like it.


Intro

 G Cadd9 G Cadd9 G Cadd9 G Cadd9 
    If only you'd realize
 G Cadd9 
    That I built this house for you
 G Cadd9 
    And it's more than I can do
 G Cadd9 
    To keep you from falling through
( Gsus2 )  G Cadd9 
         And if you go...I'm coming...along x2

Solo (synth)


    G Cadd9 
e|-5------7--------5-5-5---7-----5----7--5-------------3---------------------|
B|-------------------------------------------5-------------------------------|
G|---------------------------------------------------------------------------|
D|---------------------------------------------------------------------------|
A|---------------------------------------------------------------------------|
E|---------------------------------------------------------------------------|
    G Cadd9 
e|-5------7--------5-5-5---7-----5----7--5------------3-------2--------------|
B|------------------------------------------5--------------------------------|
G|---------------------------------------------------------------------------|
D|---------------------------------------------------------------------------|
A|---------------------------------------------------------------------------|
E|---------------------------------------------------------------------------|

( Gsus2 )  G Cadd9 
         And if you go...I'm coming...along x2

( Gsus2 )  G Cadd9 
         And if you go...I'm coming along, along, along

( Gsus2 )  G Cadd9 
         And if you go...I'm coming...along

Outro

 G Cadd9 G Cadd9 G 


Thanks, let me know if there are any corrections and please rate!
(Visited 1 times, 1 visits today)

Comments are closed.