If You See Me Tabs by Black Keys V3

                                   ~~~~~~~~~~~~~~~~~~~~~~~~~~~~~~~~~~~~~~~~
                                                If You See Me
                                                  Black Keys
                                                Thickfreakness
                                  ~~~~~~~~~~~~~~~~~~~~~~~~~~~~~~~~~~~~~~~~
: Connor O.
Tuning: Standard



Pretty fast paced song. As a result, I'm not going to time everything out. I'll
only time the parts that might cause serious confusion for the unaided ear. 

A lot of the bass-line parts (e.g. - at 0:10) are hard to hear on account 
of the drums. I tried to tab out the bass-line as best I could but I'm sure I've
missed a beat here or there. I put *'s under the chord boxes to signify bassline
progression chronologically, so if I didn't tab the bassline at a certain point
you'll be able to see where it belongs. 

Comment or message any ideas or corrections. Please rate my tab. If you've got
problems with the tab, I'd encourage you to contact me with those problems so I
can fix the tab or provide advice for playing. Don't just give me a poor rating
and not give me any feedback. The idea is for us all to work together to create
a perfect finished product. This tab just represents the best I can do. It's 
definitely up for peer review.



Key:
where # represents a fret number

#h# - hammer
#p# - pull
/ \ - slides, up and down respectively.
#b# - bend from normal note up to achieve bended note.
#r# - release bend from bended note to normal note.
#pb - bend up on # then attack and release
#b  - a slight bend a.k.a. a curl.
 x  - mute




Intro:


  0:00
    
e|---------0-----------------------|
B|---------0-------3-------2-------|
G|-----0h1---------1-------1-------|
D|---------------------------------|
A|---------------------------------|
E|-0-----------0-------0-----------|
   *   *   *   *   *   *   *   *

  

e|---------0-----------------------|
B|---------------------------------|
G|-----0h1-------------------------|
D|---------------------------------|
A|---------------------------------|
E|-0---------------0---------------|
   *   *   *   *   *   *   *   *



e|---------0-----------------------|
B|---------0-------3-------2-------|
G|-----0h1---------1-------1-------|
D|---------------------------------|
A|---------------------------------|
E|-0-----------0-------0-----------|
   *   *   *   *   *   *   *   *

  

e|---------0-----------------------|
B|---------------------------------|
G|-----0h1-------------------------|
D|---------------------------------|
A|---------------------------------|
E|-0---------------0---------------|
   *   *   *   *   *   *   *   *

  0:08

e|---------0-----------------------|
B|---------0-------3-------2-------|
G|-----0h1---------1-------1-------|
D|---------------------------------|
A|---------------------------------|
E|-0-----------0-------0-----------|
   *   *   *   *   *   *   *   *

  0:10

e|---------0-----------------------|
B|---------0-----------3-----------|
G|-----0h1---------2/4-----2-------|
D|-----------------------------0h2-|
A|---------------------------------|
E|-0-----------0-------------------|
   *   *   *   *   *   *   *   *



e|---------0-----------------------|
B|---------0-------3-------2-------|
G|-----0h1-------------------------|
D|---------------------------------|
A|---------------------------------|
E|-0-----------0-------0-----------|
   *   *   *   *   *   *   *   *

  0:14
                           If  you
e|---------0-----------0-----------|
B|---------0-----------3-----------|
G|-----1---------------1-----------|
D|---------------------------------|
A|---------------------------------|
E|-0-----------0---0---0---3---4---|



Verse 1:


  0:16
   see me    comin'
e|---------------------3-----------|
B|---------------------2-----------|
G|--------
(Visited 1 times, 1 visits today)

Comments are closed.