If Youre Gone chords – Matchbox Twenty V7

 I have a previous version of this tab on here, but I spotted some irregularities 
and found it a tad incomplete

Intro:

    A D F#m E D 

e-----5---7--5----------5---7--5-------------------|
B--------------------------------------------------|
G--------------7-----------------7-----------------|
D--7----7------------7----7-----------6-7----6-7---|
A-----------------------------------7------7-------|
E--------------------------------------------------|

    A D F#m E D 

e-----5---7--5----------5---7--5-------------------|
B--------------------------------------------------|
G--------------7-----------------7-----------------|
D--7----7------------7----7-----------6-7----6-7---|
A-----------------------------------7------7-------|
E--------------------------------------------------|


Verse 1:

 A D 
 I think I've already lost you

 F#m E D 
 I think you're already gone

 A A/C# D 
 I think I'm finally scared now

                   Bm E 
You think I'm weak - But I think you're wrong

 A D 
 I think you're already leaving

 F#m E D 
 Feels like your hand is on the door

 A A/C# D 
 I thought this place was an empire

                     Bm E 
But now I'm relaxed - I can't be sure


played with prechorus:

e------4-----4------4-----4------4-----4------4-----4------4-----4------4-3-|
B---------------------------------------------------------------------------|
G--5h6---5-6----5h6---5-6----5h6---5-6----5h6---5-6----5h6---5-6----5-6-----|
D---------------------------------------------------------------------------|
A---------------------------------------------------------------------------|
E---------------------------------------------------------------------------|

Prechorus 1:

                   Bm E 
I think you're so mean - I think we should try

                 A D 
I think I could need - this in my life

   D/C# Bm E 
I think I'm just scared - I think too much

   G 
I know this is wrong it's a problem I'm dealing


Chorus:

           A D E 
If you're gone - maybe it's time to go home

            Bm E 
There's an awful lot of breathing room

                  A 
But I can hardly move

           A D E 
If you're gone - baby you need to come home

               Bm E 
Cuz there's a little bit of something me

                 (1/2 of the intro)
In everything in you 


    A D F#m E D 
   
e-----5---7--5----------5---7--5-------------------|
B--------------------------------------------------|
G--------------7-----------------7-----------------|
D--7----7------------7----7-----------6-7----6-7---|
A-----------------------------------7------7-------|
E--------------------------------------------------|


Verse 2:

 A D 
 I bet you're hard to get over

 F#m E D 
 I bet the room just won't shine

A         A/#C        D
 I bet my hands I can stay here

           Bm E 
I bet you need - more than you mind


played with prechorus:

e------4-----4------4-----4------4-----4------4-----4------4-----4------4-3-|
B---------------------------------------------------------------------------|
G--5h6---5-6----5h6---5-6----5h6---5-6----5h6---5-6----5h6---5-6----5-6-----|
D---------------------------------------------------------------------------|

Comments are closed.