Im Not Part Of Me Tabs – Cloud Nothings

 -------------------------------------------------------------------------------
                             Im Not Part of Me - Cloud Nothings
-------------------------------------------------------------------------------
: Asmus Gregersen

Tuning: Standard

The tab is a little incomplete. I haven't tabbed the outro, and also it says nothing about the rhythm.
It would be nice if someone else could finish it. It is based on some live videos from youtube,
including some acoustic versions which are actually really nice. 

Intro
e|-----------------------------------|
B|-----------------------------------|
G|-----------------------------------|
D|-6--8-3--5-------------------------| x2 
A|-6--6-4--4-------------------------|
E|-4--6-4--4-------------------------|

Verse 
e|-----------------------------------|
B|-----------------------------------|
G|------8---5-6-5-5------8--5-6-8----|      Tjek opgang her.
D|-6----8---6-6-6-8---3--8--6-6-6----| x2 
A|-6----6---x-x-x-x---3--6--x-x-x----|
E|-4----6---4-4-4-4---1--6--4-4-4----|

Bridge 
e|-----------------------------------|
B|-9----9---9---------8---9-8--------|
G|-x----12--10--------x---x-x--------| x3
D|-10---10--10--------8---8-8--------|
A|-8----8---8---------6---6-6--------|
E|-----------------------------------|


e|-----------------------------------| 
B|-9---9s8---6-----------------------|
G|-x---x-----6-----------------------|
D|-10--8-----6-----------------------|
A|-8---6-----4-----------------------|
E|-----------------------------------|

e|-----------------------------------|
B|-9---------------------------------|
G|-10------8-------------------------|
D|-10------8-------------------------| x 3 
A|-8-------6-------------------------|
E|-8-------6-------------------------|

e|-----------------------------------| 
B|-9---9s8---6-----------------------|
G|-x---x-----6-----------------------|
D|-10--8-----6-----------------------|
A|-8---6-----4-----------------------|
E|-8---6-----------------------------|

Pre chorus
e|-----------------------------------|
B|-----------------------------------|
G|------------8--6-------------------|
D|-6---6---3--8--6-------------------|
A|-6---4---3--6--4-------------------|
E|-4---4---1-------------------------|

e|-----------------------------------|
B|-----------------------------------|
G|---------10 -8--6------------------| On the last chord: add some dissonance (dont know which note...)
D|-6---6---10--8--6------------------|
A|-6---4---8- -6--4------------------|
E|-4---4-----------------------------|

Chorus 
e|-----------------------------------|
B|-----------------------------------|
G|--------6-----------8--------------|
D|-8------6-----6-----8--------------|
A|-8------4-----6-----6--------------| x2
E|-6------------4--------------------|

e|-----------------------------------|
B|-----------------------------------|
G|--------6-5-----------8------------|
D|-8-10---6-6---6-8---8-8------------|
A|-8-8----4-4---6-6---6-6------------| x2
E|-6-6----------4-4--(6)-------------|

e|-----------------------------------|
B|-----------------------------------|
G|(10)-(10)--------------------------|
D|-11---12---------------------------|
A|-11---11---------------------------|
E|-9----9----------------------------|

Outro 

************************************

| /   slide up
| \   slide down
| h   hammer-on
| p   pull-off
| ~   vibrato
| +   harmonic
| x   Mute note
| b   Bend
| pb  Pre-bend
| br  Bend release
| pbr Pre-bend release
| brb Bend release bend

************************************
(Visited 1 times, 1 visits today)

Comments are closed.