Im Sorry Tabs by Beast

 I’m Sorry – Beast

Intro and verse:

e|------0-----------|------0-----------|
B|-----1------1-3---|-----1------1-3---|
G|---2------2-------|---1------1-------|
D|------------------|------------------|
A|------------------|------------------|
E|-1------1---------|-1-------1--------|
   T      T           T       T          (T is thumb)

e|-------------------|--------------------|-0----|
B|-------3-------1---|-------3-------1----|-0----|
G|-----0-------0-----|-----2-------2------|------|
D|---2-------2-------|---2-------2--------|------|
A|-------------------|-0-------0----------|------|
E|-0-------0---------|--------------------|------|
  

Verse and Chorus Chords

FMaj7,   Fm*,    Em7,    Am7     
(play Fm with a diminished note like  x33100, FMaj 7 x33210)

Bridge at 2:45
F, G, Em7, Am7   x2
(Visited 1 times, 1 visits today)

Comments are closed.