Intro intro Tabs by Before Their Eyes

 : Joshua Garcia (joshuag523@aol.com)

Tabs for the song: Intro by Before Their Eyes
Please rate and let me know if you have any corrections. Thank you.


Tuning: Drop C (C G C F A D)


Intro
Guitar 1:
D||--------------------------------------------------------------13~-----------------|
A||--15~-------15~-------15~-------15~-------14~-------14~-----------------14~-------|
F||----------------------------------------------------------------------------------|
C||-------12~-------12~-------12~-------12~-------12~-------12~-------12~-------12~--|
G||----------------------------------------------------------------------------------|
C||----------------------------------------------------------------------------------|


D||-------------------------------------------------------------------12~-------13~--|
A||--15~-------15~-------15~-------15~-------14~-------14~---------------------------|
F||----------------------------------------------------------------------------------|
C||----------------------------------------------------------------------------------| x2
G||-------13~-------13~-------13~-------13~-------13~-------13~--10~-------12~-------|
C||----------------------------------------------------------------------------------|




Tablature Legend
----------------
 h   hammer-on
 p   pull-off
 b   bend
 pb  pre-bend
 r   release bend
 ~   hold / vibrato
 .   palm mute
 /   slide up
 \   slide down
 *   pinch harmonic
 '   natural harmonic
 x   mute note
 T   tap
(Visited 1 times, 1 visits today)

Comments are closed.