Irresistible Tabs – Fall Out Boy Vsion 1

 Fall out boy - Irresistible
 so if it's f***ed up 
I'm sorry

Intro+Verse

E)-----------------2-5-2-5-----------| 
A)--0-2-0-2-2-5-2-5------------------|
D)-------------------------0-2-0-2--0|
G)-----------------------------------|
B)-----------------------------------|
e)-----------------------------------|
                                      x8

Pre-chorus

E)3----2----0|
A)5----5----2|
D)5----5----2|
G)4----4----0|
B)3----2----0|
e)3----2----0|

Chorus

E)x-x-7-7-7-5-5-5-3-3-3-3|
A)x-x-9-9-9-7-7-7-5-5-5-5|
D)x-x-9-9-9-7-7-7-5-5-5-5|
G)x-x-7-7-7-5-5-5-3-3-3-3|
B)x-x--------------------|
e)x-x--------------------|
                         x2

Guitar 1
E)7-7-7-7-10-10-10-10-5-5-5-5-12-12-12-12|
A)9-9-9-9-12-12-12-12-7-7-7-7-14-14-14-14|
D)9-9-9-9-12-12-12-12-7-7-7-7-14-14-14-14|
G)7-7-7-7-10-10-10-10-5-5-5-5-12-12-12-12|
B)---------------------------------------|
e)---------------------------------------|
                                         x2

Guitar 2

E)-----------------2-5-2-5-----------| 
A)--0-2-0-2-2-5-2-5------------------|
D)-------------------------0-2-0-2--0|
G)-----------------------------------|
B)-----------------------------------|
e)-----------------------------------|
                                     x2

Verse

E)-------|---------------2-5-2-5----------|
A)0-2-0-2|0-2-0-2-2-5-2-5-----------------|
D)-------|----------------------0-2-0-2--0|
G)-------|--------------------------------|
B)-------|--------------------------------|
e)-------|--------------------------------|
       x2                                x6

Pre-chorus

E)3----2----0|
A)5----5----2|
D)5----5----2|
G)4----4----0|
B)3----2----0|
e)3----2----0|

Chorus

E)x-x-7-7-7-5-5-5-3-3-3-3|
A)x-x-9-9-9-7-7-7-5-5-5-5|
D)x-x-9-9-9-7-7-7-5-5-5-5|
G)x-x-7-7-7-5-5-5-3-3-3-3|
B)x-x--------------------|
e)x-x--------------------|
                         x2

Guitar 1
E)7-7-7-7-10-10-10-10-5-5-5-5-12-12-12-12|
A)9-9-9-9-12-12-12-12-7-7-7-7-14-14-14-14|
D)9-9-9-9-12-12-12-12-7-7-7-7-14-14-14-14|
G)7-7-7-7-10-10-10-10-5-5-5-5-12-12-12-12|
B)---------------------------------------|
e)---------------------------------------|
                                         x2

Guitar 2

E)-----------------2-5-2-5-----------| 
A)--0-2-0-2-2-5-2-5------------------|
D)-------------------------0-2-0-2--0|
G)-----------------------------------|
B)-----------------------------------|
e)-----------------------------------|
                                     x2

Bridge 
Don't play until Patrick comes in

Guitar 1

E)---|-------------|
A)---|-------------|
D)---|-------------|
G)---|-------------|
B)---|--------15-12|
e)-14|-14-12-------|
   x16

E)----------------------------|
A)----------------------------|
D)----------------------------|
G)--------------11-9-11-------|
B)--12-10h12----------------12|
e)-----------------------10---|

E)-------------------------------------|
A)-------------------------------------|
D)-------------------------------------|
G)-------------------------------------|
B)-10h12----12-10----7----3/5/7b7-5-3-0|
e)-------10----------------------------|


Guitar 2

E)-----------------2-5-2-5-----------| 
A)--0-2-0-2-2-5-2-5------------------|
D)-------------------------0-2-0-2--0|
G)-----------------------------------|
B)-----------------------------------|
e)-----------------------------------|
                                     x2

Pre-chorus

E)3----2----0|
A)5----5----2|
D)5----5----2|
G)4----4----0|
B)3----2----0|
e)3----2----0|

Chorus

E)x-x-7-7-7-5-5-5-3-3-3-3|
A)x-x-9-9-9-7-7-7-5-5-5-5|
D)x-x-9-9-9-7-7-7-5-5-5-5|
G)x-x-7-7-7-5-5-5-3-3-3-3|
B)x-x--------------------|
e)x-x--------------------|
                         x2

Guitar 1
E)7-7-7-7-10-10-10-10-5-5-5-5-12-12-12-12|
A)9-9-9-9-12-12-12-12-7-7-7-7-14-14-14-14|
D)9-9-9-9-12-12-12-12-7-7-7-7-14-14-14-14|
G)7-7-7-7-10-10-10-10-5-5-5-5-12-12-12-12|
B)---------------------------------------|
e)---------------------------------------|
                     

Comments are closed.