Jesse Ar Tabs by Said The Whale

 This is the only tab for Jesse, Ar I have seen on the internet so far. It's a great song 
and it's not that hard to play, just listen to it to figure out the rythm and if you 
see anything wrong with this tab don't hesitate to point it out!


Intro (Rythm)

E----------------------------------|
B----------------------------------|
G----------------------------------|
D----------------------------------|   x4
A---7---7---7---7---7---7---7---7--|
E-0---0---0---0---0---0---0---0----|

E------------------|
B------------------|
G-1-1-1-1-1-1-1-1--|
D-2-2-2-2-2-2-2-2--|   palm muted, x2
A-2-2-2-2-2-2-2-2--|
E-0-0-0-0-0-0-0-0--|


Intro (Lead)

E----------12-11------------------------|
B-12-14----------14-12-------12---------|
G-------13-------------13-11----13-11-9-|
D---------------------------------------|
A---------------------------------------|
E---------------------------------------|


Verse (Rythm)

Jesse came from Arkansas...
E----------------------------------|
B----------------------------------|
G-1-1--1-1--1-1--6-6-6-6-----------|
D-2-2--2-2--2-2--7-7-7-7-----------| x8 (No singing the first 4 times, the lead plays 
during these 4 times)
A-2-2--2-2--2-2--7-7-7-7-----------|
E-0-0--0-0--0-0--5-5-5-5-----------|


Verse (Lead)

E----------------------------------12---------------------------------|
B-12-12-12-12-12-12-12-12-12-12-14----14-12---------------------------|
G-------------------------------------------13-13-13-13-13-13-13-13---|
D---------------------------------------------------------------------|
A---------------------------------------------------------------------|
E---------------------------------------------------------------------|

E---------------------------------------------------------------------------|
B----------------12----------------------------------------------12---------|
G-11-11-11-11-13----13-11-------------------------11-11-11-11-13----13-11---|
D-------------------------14-14-14-14-14-14-14-14---------------------------|
A---------------------------------------------------------------------------|
E---------------------------------------------------------------------------|

E-------------------------------------14-12-------12|
B-------------------------------------------14-12---|
G---------------------------------------------------|
D-14-14-14-14-14-14-14-14-14-14-14-14---------------|
A---------------------------------------------------|
E---------------------------------------------------|


Pre-chorus

So he headed out to Edmonton...
E------------------|
B------------------|
G-6-6-6-6-6-6-6-6--|
D-7-7-7-7-7-7-7-7--|  x4
A-7-7-7-7-7-7-7-7--|
E-5-5-5-5-5-5-5-5--|


Verse (Rythm)

Didn't take a couple months...
E----------------------------------|
B----------------------------------|
G-1-1--1-1--1-1--6-6-6-6-----------|
D-2-2--2-2--2-2--7-7-7-7-----------| x6 (No singing the first 2 times)
A-2-2--2-2--2-2--7-7-7-7-----------|
E-0-0--0-0--0-0--5-5-5-5-----------|


Pre-chorus

So he brought her back to Little Rock...
E------------------|
B------------------|
G-6-6-6-6-6-6-6-6--|
D-7-7-7-7-7-7-7-7--|  x4
A-7-7-7-7-7-7-7-7--|
E-5-5-5-5-5-5-5-5--|


Chorus

Restless eyes they never sleep for too long...
E---x---x---x----------------------|
B---x---x---x----------------------|
G---x-9-x---x-8-8-9-9--------------|                  7
D-9-x-x-x-7-x-x-x-x-x--------------| x10 (He stops at x the 10th time)
A-x-x-7-x-x-x-6-6-7-7--------------|                  5
E-7-x---x-5-x----------------------|


Verse (Rythm)

Didn't take a couple months...
E----------------------------------|
B----------------------------------|
G-1-1--1-1--1-1--6-6-6-6-----------|
D-2-2--2-2--2-2--7-7-7-7-----------| x6 (No singing the first 2 times)
A-2-2--2-2--2-2--7-7-7-7-----------|
E-0-0--0-0--0-0--5-5-5-5-----------|


Verse (Lead)

E----------------------------------12----------------
(Visited 1 times, 1 visits today)

Comments are closed.